Better Than Me (ver4) Tab - Hinder






Band       : Hinder
Song       : Better than me
Tabbed By  : Nick Rotondo
Tuning     : Standard
Email      : nickr7491@msn.com
This tab was originally done by ruth mae quisayang, but i noticed some parts that needed 
be changed, mainly the intro.

Intro/verse :
e----------------------------------------------------------------|
b-----5---5-----5------5---5-----5------3---3---3--33/5(5)-------|
g-----------------------------------------------xxx-------------|(4x)
d---3---3---3--------3---3---3--------3---------3--33/5----------|
a-5-----------5----3-----------3----1-----1---1-1--11/3----------|
E----------------------------------------------------------------|

Pre-Chorus :
e-------------|
b-------------|
g-7--3--5-----|
d-7--3--5-----|
a-5--1--3-----|
E-------------|

Chorus :
e-----------------------|
b-----------------------|
g-7--3--7--5--7--3--5---|
d-7--3--7--5--7--3--5---|
a-5--1--5--3--5--1--3---|
E-----------------------|

Repeat intro 2x

Verse 2 :
e----------------------------------------------|
b-------------------------3---3---3--33/5(5)---|
g-7-5-3-----------7-5-------------x--xx--------|
d-7-5-3-(3x)then--7-5---3---------3--33/5------|
a-5-3-1-----------5-3-1-----1---1-1--11/3------|
E----------------------------------------------|

Repeat Pre-chorus
Repeat Chorus

Bridge :
e-------------------------------|
b-------------------------------|
g----3-----5--------------------|
d-5--3--3--5-(2x)then-77777777--|
a-5--1--3--3----------77777777--|
E-3-----1-------------55555555--|

Repeat Chorus 2x

Outro :
e----------------|
b----------------|
g-7--3--5--------|
d-7--3--5(4x)---|
a-5--1--3--------|
E----------------|

Listen to the song for the strumming and
When strumming, listen for when the power chords are barred such as...

e-----------------------3---|
B-----------------------3---|
G--5--------------------5---|
D--5---(turning into)---5---|
A--3--------------------3---|
E---------------------------|

email me with any questions or corrections.

ĂŽnscrie-te la newsletter


Like us on Facebook