Better Than Me Tab - Hinder






artist:hinder
song:better than me
Tabbed by:guitarplayin
Email:ungiven_questions@yahoo.com

i might be right with this tab im not sure tho its my first tab on here i usually dont 
stuff but i was bored.  so here you go

Tuning:standard (E-A-D-G-B-e)
intro
e|------------------------------------------------------------|
B|------------------------------------------------------------|
G|-----9---9-----9------7---7-----7------5---5-----5--5--55---|X5
D|---9---9---9--------7---7---7--------5---5---5------5--55---|
A|-7-----------7----5-----------5----3-----------3----3--33---|
E|------------------------------------------------------------|
verse
e|----------------------------|
B|----------------------------|
G|-9--7--5--------------------|X2
D|-9--7--5--------------------|
A|-7--5--3--------------------|
E|----------------------------|
chorus
e|-------------------------|
B|-------------------------|
G|-9-7-9-7-9-7-5-----------|X1
D|-9-7-9-7-9-7-5-----------|
A|-7-5-7-5-7-5-3-----------|
E|-------------------------|

e|------------------------------------------------------------|
B|------------------------------------------------------------|
G|-----9---9-----9------7---7-----7------5---5-----5--5--55---|X2
D|---9---9---9--------7---7---7--------5---5---5------5--55---|
A|-7-----------7----5-----------5----3-----------3----3--33---|
E|------------------------------------------------------------|

e|------------------   -------------------------------------|on the 4th
B|------------------   -------------------------------------|time play this
G|-9--7--5----------X4 --9--7------5---5-----5--5--55-------|instead
D|-9--7--5----------   --9--7----5---5---5------5--55-------|
A|-7--5--3----------   --7--5--3-----------3----3--33-------|
E|------------------   -------------------------------------|

after playing this through repeat the verse and chorus for a while back and fourth, just 
to the song.  its really easy to play.

| /  slide up
|   slide down
| h  hammer-on
| p  pull-off
| ~  vibrato
| +  harmonic
| x  Mute note






Like us on Facebook