Lips Of An Angel Acoustic Tab - Hinder






Ok this is a great song, especially on acoustic. I find it is easyist to play this with
guitars. Guitar 1 does all the picking. Guitar 2 plays power chords. Guitar 3 plays
chords (this part is right above the words!!!!). You can play this tuned down a half 
or play it normal. It just depands on how you feel. Hope you like it!

Guitar 1 INTRO
e|--------------|------------------|------------------|------------------|
B|---------3----|------------------|------------------|----------3-------|
D|--------2-2-2-|--------3---------|----------7-------|-----------2-2----|
G|-----------2--|-------4-4-4------|-----------7--7---|------------0-----|
A|--------------|----------4-------|------------5-----|------------------|
E|--------------|------------------|--------5---------|--------0---------|

Guitar 2 INTRO
INTRO:
e|----x---------|------------------|------------------|------------------|
B|----x---------|------------------|------------------|------------------|
D|----2---------|----4-------------|------------------|------------------|
G|----2---------|----4-------------|----7-------------|----0-------------|
A|----0---------|----2-------------|----5-------------|----0-------------|
E|--------------|------------------|----5-------------|----0-------------|

Asus4      Bm       G   D
Honey why you callin me so late

e|--------------|------------------|------------------|------------------|
B|---------3----|------------------|------------------|----------3-------|
D|--------2-2-2-|--------3---------|----------7-------|-----------2-2----|
G|-----------2--|-------4-4-4------|-----------7--7---|------------0-----|
A|--------------|----------4-------|------------5-----|------------------|
E|--------------|------------------|--------5---------|--------0---------|

e|----x---------|------------------|------------------|------------------|
B|----x---------|------------------|------------------|------------------|
D|----2---------|----4-------------|------------------|------------------|
G|----2---------|----4-------------|----7-------------|----0-------------|
A|----0---------|----2-------------|----5-------------|----0-------------|
E|--------------|------------------|----5-------------|----0-------------|


Asus4           Bm         G   D
It's kinda hard to talk right now

e|--------------|------------------|------------------|------------------|
B|---------3----|------------------|------------------|----------3-------|
D|--------2-2-2-|--------3---------|----------7-------|-----------2-2----|
G|-----------2--|-------4-4-4------|-----------7--7---|------------0-----|
A|--------------|----------4-------|------------5-----|------------------|
E|--------------|------------------|--------5---------|--------0---------|

e|----x---------|------------------|------------------|------------------|
B|----x---------|------------------|------------------|------------------|
D|----2---------|----4-------------|------------------|------------------|
G|----2---------|----4-------------|----7-------------|----0-------------|
A|----0---------|----2-------------|----5-------------|----0-------------|
E|--------------|------------------|----5-------------|----0-------------|


Asus4      Bm            G       D
Honey why you cryin? Is everything ok?

e|--------------|------------------|------------------|------------------|
B|---------3----|------------------|------------------|----------3-------|
D|--------2-2-2-|--------3---------|----------7-------|-----------2-2----|
G|-----------2--|-------4-4-4------|-----------7--7---|------------0-----|
A|--------------|----------4-------|------------5-----|------------------|
E|--------------|------------------|--------5---------|--------0---------|

e|----x---------|------------------|------------------|------------------|
B|----x---------|------------------|------------------|------------------|
D|----2---------|----4-------------|------------------|------------------|
G|----2---------|----4-------------|----7-------------|----0-------------|
A|----0---------|----2-------------|----5-------------|----0-------------|
E|--------------|------------------|----5-------------|----0-------------|


Asus4                Bm           G
I gotta whisper cause I can't be too loud

e|--------------|------------------|------------------|------------------|
B|---------3----|------------------|------------------|----------3-------|
D|--------2-2-2-|--------3---------|----------7-------|-----------2-2----|
G|-----------2--|-------4-4-4------|-----------7--7---|------------0-----|
A|--------------|----------4-------|------------5-----|------------------|
E|--------------|------------------|--------5---------|--------0---------|

e|----x---------|------------------|------------------|------------------|
B|----x---------|------------------|------------------|------------------|
D|----2---------|----4-------------|------------------|------------------|
G|----2---------|----4-------------|----7-------------|----0-------------|
A|----0---------|----2-------------|----5-------------|----0-------------|
E|--------------|------------------|----5-------------|----0-------------|


              D           Asus4
Well, my girls in the next room

e|--------------|--------------|--------------|--------------|
B|----3----3----|--------------|----3----3----|--------------|
D|----2----2----|----2----2----|----4----4----|----7----7----|
G|----0----0----|----2----2----|----4----4----|----7----7----|
A|----0----0----|----0----0----|----2----2----|----5----5----|
E|----0----0----|--------------|--------------|----5----5----|


Bm          G
Sometimes I wish she was you

e|--------------|--------------|--------------|--------------|
B|----3----3----|--------------|----3----3----|--------------|
D|----2----2----|----2----2----|----4----4----|----7----7----|
G|----0----0----|----2----2----|----4----4----|----7----7----|
A|----0----0----|----0----0----|----2----2----|----5----5----|
E|----0----0----|--------------|--------------|----5----5----|


D          Asus4            Bm     G
I guess we never really moved on

e|--------------|--------------|--------------|--------------|
B|----3----3----|--------------|----3----3----|--------------|
D|----2----2----|----2----2----|----4----4----|----7----7----|
G|----0----0----|----2----2----|----4----4----|----7----7----|
A|----0----0----|----0----0----|----2----2----|----5----5----|
E|----0----0----|--------------|--------------|----5----5----|


    D               Asus4           C5         G
It's really good to hear your voice Sayin my name It sounds so sweet

e|--------------|--------------|--------------|--------------|
B|----3----3----|--------------|--------------|--------------|
D|----2----2----|----2----2----|---12---12----|----7----7----|
G|----0----0----|----2----2----|---12---12----|----7----7----|
A|----0----0----|----0----0----|---10---10----|----5----5----|
E|----0----0----|--------------|---10---10----|----5----5----|


               D                Asus4                C5      G
Comin from the lips of an angel Hearin those word It makes me weak

e|--------------|--------------|--------------|--------------|
B|----3----3----|--------------|--------------|--------------|
D|----2----2----|----2----2----|---12---12----|----7----7----|
G|----0----0----|----2----2----|---12---12----|----7----7----|
A|----0----0----|----0----0----|---10---10----|----5----5----|
E|----0----0----|--------------|---10---10----|----5----5----|

     D                       Asus4                        Bm              G
And I never want to say goodbye, But girl you make it so hard to be faithful

e|--------------|--------------|--------------|--------------|
B|----3----3----|--------------|----3----3----|--------------|
D|----2----2----|----2----2----|----4----4----|----7----7----|
G|----0----0----|----2----2----|----4----4----|----7----7----|
A|----0----0----|----0----0----|----2----2----|----5----5----|
E|----0----0----|--------------|--------------|----5----5----|

With the lips of an angel


Bm, Asus4, G


Asus4               Bm         G  D
It's funny that you're callin me tonight

e|--------------|------------------|------------------|------------------|
B|---------3----|------------------|------------------|----------3-------|
D|--------2-2-2-|--------3---------|----------7-------|-----------2-2----|
G|-----------2--|-------4-4-4------|-----------7--7---|------------0-----|
A|--------------|----------4-------|------------5-----|------------------|
E|--------------|------------------|--------5---------|--------0---------|

e|----x---------|------------------|------------------|------------------|
B|----x---------|------------------|------------------|------------------|
D|----2---------|----4-------------|------------------|------------------|
G|----2---------|----4-------------|----7-------------|----0-------------|
A|----0---------|----2-------------|----5-------------|----0-------------|
E|--------------|------------------|----5-------------|----0-------------|


Asus4   Bm            G     D
And yes I dreamt of you too

e|--------------|------------------|------------------|------------------|
B|---------3----|------------------|------------------|----------3-------|
D|--------2-2-2-|--------3---------|----------7-------|-----------2-2----|
G|-----------2--|-------4-4-4------|-----------7--7---|------------0-----|
A|--------------|----------4-------|------------5-----|------------------|
E|--------------|------------------|--------5---------|--------0---------|

e|----x---------|------------------|------------------|------------------|
B|----x---------|------------------|------------------|------------------|
D|----2---------|----4-------------|------------------|------------------|
G|----2---------|----4-------------|----7-------------|----0-------------|
A|----0---------|----2-------------|----5-------------|----0-------------|
E|--------------|------------------|----5-------------|----0-------------|


Asus4          Bm             G
Does he know your talkin' to me?

e|--------------|------------------|------------------|------------------|
B|---------3----|------------------|------------------|----------3-------|
D|--------2-2-2-|--------3---------|----------7-------|-----------2-2----|
G|-----------2--|-------4-4-4------|-----------7--7---|------------0-----|
A|--------------|----------4-------|------------5-----|------------------|
E|--------------|------------------|--------5---------|--------0---------|

e|----x---------|------------------|------------------|------------------|
B|----x---------|------------------|------------------|------------------|
D|----2---------|----4-------------|------------------|------------------|
G|----2---------|----4-------------|----7-------------|----0-------------|
A|----0---------|----2-------------|----5-------------|----0-------------|
E|--------------|------------------|----5-------------|----0-------------|


D
Will it start a fight?

e|--------------|------------------|------------------|------------------|
B|---------3----|------------------|------------------|----------3-------|
D|--------2-2-2-|--------3---------|----------7-------|-----------2-2----|
G|-----------2--|-------4-4-4------|-----------7--7---|------------0-----|
A|--------------|----------4-------|------------5-----|------------------|
E|--------------|------------------|--------5---------|--------0---------|

e|----x---------|------------------|------------------|------------------|
B|----x---------|------------------|------------------|------------------|
D|----2---------|----4-------------|------------------|------------------|
G|----2---------|----4-------------|----7-------------|----0-------------|
A|----0---------|----2-------------|----5-------------|----0-------------|
E|--------------|------------------|----5-------------|----0-------------|


Asus4          Bm        G
No, I don't think she has a clue

e|--------------|------------------|------------------|------------------|
B|---------3----|------------------|------------------|----------3-------|
D|--------2-2-2-|--------3---------|----------7-------|-----------2-2----|
G|-----------2--|-------4-4-4------|-----------7--7---|------------0-----|
A|--------------|----------4-------|------------5-----|------------------|
E|--------------|------------------|--------5---------|--------0---------|

e|----x---------|------------------|------------------|------------------|
B|----x---------|------------------|------------------|------------------|
D|----2---------|----4-------------|------------------|------------------|
G|----2---------|----4-------------|----7-------------|----0-------------|
A|----0---------|----2-------------|----5-------------|----0-------------|
E|--------------|------------------|----5-------------|----0-------------|


       D           Asus4
Well, my girls in the next room

e|--------------|--------------|--------------|--------------|
B|----3----3----|--------------|----3----3----|--------------|
D|----2----2----|----2----2----|----4----4----|----7----7----|
G|----0----0----|----2----2----|----4----4----|----7----7----|
A|----0----0----|----0----0----|----2----2----|----5----5----|
E|----0----0----|--------------|--------------|----5----5----|


Bm          G
Sometimes I wish she was you

e|--------------|--------------|--------------|--------------|
B|----3----3----|--------------|----3----3----|--------------|
D|----2----2----|----2----2----|----4----4----|----7----7----|
G|----0----0----|----2----2----|----4----4----|----7----7----|
A|----0----0----|----0----0----|----2----2----|----5----5----|
E|----0----0----|--------------|--------------|----5----5----|


D          Asus4            Bm     G
I guess we never really moved on

e|--------------|--------------|--------------|--------------|
B|----3----3----|--------------|----3----3----|--------------|
D|----2----2----|----2----2----|----4----4----|----7----7----|
G|----0----0----|----2----2----|----4----4----|----7----7----|
A|----0----0----|----0----0----|----2----2----|----5----5----|
E|----0----0----|--------------|--------------|----5----5----|


    D               Asus4           C5         G
It's really good to hear your voice Sayin my name It sounds so sweet

e|--------------|--------------|--------------|--------------|
B|----3----3----|--------------|--------------|--------------|
D|----2----2----|----2----2----|---12---12----|----7----7----|
G|----0----0----|----2----2----|---12---12----|----7----7----|
A|----0----0----|----0----0----|---10---10----|----5----5----|
E|----0----0----|--------------|---10---10----|----5----5----|


               D                Asus4                C5      G
Comin from the lips of an angel Hearin those word It makes me weak

e|--------------|--------------|--------------|--------------|
B|----3----3----|--------------|--------------|--------------|
D|----2----2----|----2----2----|---12---12----|----7----7----|
G|----0----0----|----2----2----|---12---12----|----7----7----|
A|----0----0----|----0----0----|---10---10----|----5----5----|
E|----0----0----|--------------|---10---10----|----5----5----|

     D                       Asus4                        Bm              G
And I never want to say goodbye, But girl you make it so hard to be faithful

e|--------------|--------------|--------------|--------------|
B|----3----3----|--------------|----3----3----|--------------|
D|----2----2----|----2----2----|----4----4----|----7----7----|
G|----0----0----|----2----2----|----4----4----|----7----7----|
A|----0----0----|----0----0----|----2----2----|----5----5----|
E|----0----0----|--------------|--------------|----5----5----|

With the lips of an angel


    D               Asus4           C5         G
It's really good to hear your voice Sayin my name It sounds so sweet

e|--------------|--------------|--------------|--------------|
B|----3----3----|--------------|--------------|--------------|
D|----2----2----|----2----2----|---12---12----|----7----7----|
G|----0----0----|----2----2----|---12---12----|----7----7----|
A|----0----0----|----0----0----|---10---10----|----5----5----|
E|----0----0----|--------------|---10---10----|----5----5----|


               D                Asus4                C5      G
Comin from the lips of an angel Hearin those word It makes me weak

e|--------------|--------------|--------------|--------------|
B|----3----3----|--------------|--------------|--------------|
D|----2----2----|----2----2----|---12---12----|----7----7----|
G|----0----0----|----2----2----|---12---12----|----7----7----|
A|----0----0----|----0----0----|---10---10----|----5----5----|
E|----0----0----|--------------|---10---10----|----5----5----|

     D                       Asus4                        Bm              G
And I never want to say goodbye, But girl you make it so hard to be faithful

e|--------------|--------------|--------------|----------------|
B|----3----3----|--------------|----3----3----|----------------|
D|----2----2----|----2----2----|----4----4----|----7----7------|
G|----0----0----|----2----2----|----4----4----|----7----7------|
A|----0----0----|----0----0----|----2----2----|----5----5------|
E|----0----0----|--------------|--------------|----5----5------|

With the lips of an angel

(strum:  Asus4, Bm, G, D)


   Asus4 Bm       G   D
   Honey why you callin me so late?

e|--------------|------------------|------------------|------------------|
B|---------3----|------------------|------------------|----------3-------|
D|--------2-2-2-|--------3---------|----------7-------|-----------2-2----|
G|-----------2--|-------4-4-4------|-----------7--7---|------------0-----|
A|--------------|----------4-------|------------5-----|------------------|
E|--------------|------------------|--------5---------|--------0---------|

e|----x---------|------------------|------------------|------------------|
B|----x---------|------------------|------------------|------------------|
D|----2---------|----4-------------|------------------|------------------|
G|----2---------|----4-------------|----7-------------|----0-------------|
A|----0---------|----2-------------|----5-------------|----0-------------|
E|--------------|------------------|----5-------------|----0-------------|

And thats it!!!! Wow, that was alot of work!!! Any comments or suggestions e-mail me at
or, im me at punkrock9090!!
Ok
Thanx!

ĂŽnscrie-te la newsletter


Join the ranks ! LIKE us on Facebook