Paste Tab - Hinder






-------------------------------------------------------------------------------
     Paste - Hinder
-------------------------------------------------------------------------------
Tabbed by:Phillip
Email:Cheetaclawsfl@yahoo.com

Tuning:Standard

This is a song off of the Far From Close Cd in 2003.  They made 5,000 copies of it, so 
probably don't have it. If you do, here you go

e|---------------------------------------------------------------------------|
B|---------------------------------------------------------------------------|
G|---------------------------------------------------------------------------|
D|-9-9-7-7-7-7-7-11-11-7-7-7-7-7---------------------------------------------|
A|-9-9-7-7-7-7-7-11-11-7-7-7-7-7---------------------------------------------|
E|-7-7-5-5-5-5-5-9--9--5-5-5-5-5---------------------------------------------|

That is the intro with light distortion.  It is also the rhythm guitar in the verse. 
I don't know the lead guitar part.

Chorus
e|---------------------------------------------------------------------------|
B|---------------------------------------------------------------------------|
G|---------------------------------------------------------------------------|
D|-9-9-9-9-9-9-9-7-7-7-7-7-7-7-11-11-11-11-11-11-11-7-7-7-7-7-7-7------------|
A|-9-9-9-9-9-9-9-7-7-7-7-7-7-7-11-11-11-11-11-11-11-7-7-7-7-7-7-7------------|
E|-7-7-7-7-7-7-7-5-5-5-5-5-5-5-9--9--9--9--9--9--9--5-5-5-5-5-5-5------------|


That's it, The chorus is behind the solo. Have fun!:)

| /  slide up
|   slide down
| h  hammer-on
| p  pull-off
| ~  vibrato
| +  harmonic
| x  Mute note
===============================================================================

ĂŽnscrie-te la newsletter


Join the ranks ! LIKE us on Facebook