Black Dahlia ver2 Tab - Hollywood Undead






this is just how i play it so i dont give a f**k if it doesnt sound right to you. we 
this song with this tab in drop c and some riffs in the verse and such but i wont put that 
as "by hollywood undead" since its my cover. you could also do drop d if you want.
thanx for looking!

intro:
|-----------------------------------------------------------------|
|-----------------------------------------------------------------|
|-----------------------------------------------------------------|
|-4-4-4-4-4-4-4-4-7-7-7-7-7-7-7-7-0-0-0-0-0-0-0-0-2-2-2-2-2-2-2-2-| x4
|-4-4-4-4-4-4-4-4-7-7-7-7-7-7-7-7-0-0-0-0-0-0-0-0-2-2-2-2-2-2-2-2-|
|-4-4-4-4-4-4-4-4-7-7-7-7-7-7-7-7-0-0-0-0-0-0-0-0-2-2-2-2-2-2-2-2-|
  . . . . . . . . . . . . . . . . . . . . . . . . . . . . . . . .

on 4th time only play the last chord 4 times instead of 8

verse: no guitar

chorus:
|-----------------------------------------------|
|-----------------------------------------------|
|-----------------------------------------------| x4
|-----------------------------------------------|
|-0-0--000000-2-2--2-2-2-4-4--444444-7-7--7-7-7-|
|-0-0--000000-2-2--2-2-2-4-4--444444-7-7--7-7-7-|
  . .  ...... . .  . . . . .  ...... . .  . . .

In the part that goes "seems like all we had is over now" you play the intro

should be pretty easy to figure out






Like us on Facebook