Circles Tab - Hollywood Undead






-------------------------------------------------------------------------------
     Circles - Hollywood Undead
-------------------------------------------------------------------------------
Tabbed by: Marc Gamble
E-mail: mag00019@students.stir.ac.uk

Tuning: Standard EADGBe (Capo 3)

This is my interpretation of the song.  The only other version of this song (apart from
the name spelled incorrectly) didn't include the lower sounding part.  The chord
is simple enough.  This is my first tab, so I wasn't sure whether or not I should have 
the chord names due to the capo.  Sorry if I was supposed to.

   Am          Am7  F                C/G              E

e|-----0-------0---|----1-------1---|----0-------0---|----0-------0---|
B|---1---1---1---1-|--1---1---1---1-|--1---1---1---1-|--0---0---0---0-|
G|-2-------2-------|2-------2-------|0-------0-------|1-------1-------|
D|-----------------|----------------|----------------|--------0---2---|
A|-0-----------2---|----------------|------------3---|2---------------|
E|-----------------|1---------------|3---------------|----------------|

That's the only riff in the song.  It stops a couple of times, but you listen to the
to find where that is.  Repeat to fade I suppose. =]






Like us on Facebook