No 5 Tab - Hollywood Undead






HOLLYWOOD UNDEAD- NO. 5

DROP D TUNING


They use some keyboard thing for all three of the parts except for the other guitar.

Intro:
1st keyboard-
e|------------------------------------------------------------|
B|------------------------------------------------------------|
G|------------------------------------------------------------|  
D|---------3--------------------------------------------------|  
A|-1-3-4-1---3-4---3-4---3-4----------------------------------|   
E|---------------1-----3--------------------------------------|   /
                                                                 /
2nd keyBoard-                                                   /
e|------------------------------------------------------------|/
B|------------------------------------------------------------|
G|------------------------------------------------------------| 
D|------------------------------------------------------------|  
A|-8-8-7766--4-4-2-2------------------------------------------|   
E|------------------------------------------------------------|    main rift through out the song
                                                                   /
3rd keyboard-                                                     /
                                                                 / 
e|------------------------------------------------------------| /
B|------------------------------------------------------------|/
G|------------------------------------------------------------|
D|------------------------------------------------------------|
A|-1-1-1-1-1-(keep repeating)---------------------------------|
E|------------------------------------------------------------|


The guitar:

e|----------------------------------------------------------------------|X4
B|----------------------------------------------------------------------|
G|-3------3-------------------------------------------------------------|
D|-3--1-3-3-------------------------------------------------------------|
A|-1--1-3-1-------------------------------------------------------------|
E|----1-3---------------------------------------------------------------|

VERSE:REPEAT RIFT X8

CHOURS: RIFT AND GUITAR X4

2nd VERSE: REPEAT RIFT X8

CHOURS: RIFT AND GUITAR X4

after 2nd chours

ANOTHER KEYBOARD CANT BE PLAYED LIKE IT IS ON THE BOARD BUT IT SOUNDS THE SAME:
e|-----------------------------------------------------------------------|X8
B|--11-X8----------------------------------------------------------------|
G|--------8888-10101010--------------------------------------------------|
D|-----------------------------------------------------------------------|
A|-----------------------------------------------------------------------|
E|-----------------------------------------------------------------------|

OTHER KEYBOARD:
e|-----------------------------------------------------------------------|X6
B|-----------------------------------------------------------------------|
G|-----------------------------------------------------------------------|
D|---------3-------------------------------------------------------------|
A|-1-3-4-1---3-4---3-4---3-4---------------------------------------------|
E|---------------1-----3-------------------------------------------------|


GOES BACK TO CHOURS






Like us on Facebook