Pimpin Tab - Hollywood Undead






Tuning "Drop D"

Intro
e----------------------|
b----------------------|
g----------------------|
d-99--99--99--99-------|
a-99--99--99--99-------|
D-99--99--99--99-------|


"come on everybody throw your hands up"
e----------------------|
b----------------------|
g----------------------|
d-99--99--55--77-------|
a-99--99--55--77-------|
D-99--99--55--77-------|


Then just continue it throughout the song

ĂŽnscrie-te la newsletter


Like us on Facebook