Consequences Tab - Iced Earth






Iced Earth:  Consequences

transcribed by:  Russ Elton (vicelton@yahoo.com)

FIND EVERY ICED EARTH SONG AND
THE MOST UPDATED VERSION OF THIS SONG AT:

                          The Frozen Palace
                  http://truemetal.org/icedearth/

Date last modified:  01/22/02
  
PLEASE DO NOT COPY THIS TAB TO ANOTHER SITE 
WITHOUT AUTHORS' PERMISSION.  THANK YOU.

Tuning: Eb

Acoustic (listen to song for strumming patterns)

Riff 1                       x2
eb|--0---0-0----0-0-0--3--2---|
Bb|--0---0-0----0-0-0--3--3---|
Gb|--0---0-0----0-0-0--0--2---|
Db|--2---2-2----2-2-2--0--0---|
Ab|--2---2-2----2-2-2--2------|
Eb|--0---0-0----0-0-0--3------|
   "As human beings..."

eb|--0---0-0----0-0-0--3--2---|
Bb|--1---1-1----1-1-1--3--3---|
Gb|--2---2-2----2-2-2--0--2---|
Db|--2---2-2----2-2-2--0--0---|
Ab|--0---0-0----0-0-0--2------|
Eb|--------------------3------|
   "Sometimes so beautiful..."

eb|--0---0-0----0-0-0--3--2---|
Bb|--0---0-0----0-0-0--3--3---|
Gb|--0---0-0----0-0-0--0--2---|
Db|--2---2-2----2-2-2--0--0---|
Ab|--2---2-2----2-2-2--2------|
Eb|--0---0-0----0-0-0--3------|
   "Other times so vain..."


Riff 2 (acoustic)
Guitar 1
eb|-0--0-0-------0-0-0---3--3-3-------3-3-3-|
Bb|-1--1-1-------1-1-1---3--3-3-------3-3-3-|
Gb|-2--2-2-------2-2-2---0--0-0-------0-0-0-|
Db|-2--2-2-------2-2-2---0--0-0-------0-0-0-|
Ab|-0--0-0-------0-0-0---2--2-2-------2-2-2-|
Eb|----------------------3--3-3-------3-3-3-|
    "Oh..."

Guitar 2
eb|------------0--------------------0------|
Bb|--------0h1--------------------0--------|
Gb|------2----------------------0----------|
Db|----2----------------------0------------|
Ab|-0-----------------------2--------------|
Eb|----------------------3-----------------|
   

Guitar 1
eb|-0--0-0-----0-0-0------0--0-0-----0-0-0-----|
Bb|-0--0-0-----0-0-0------0--0-0-----0-0-0-----|
Gb|-0--0-0-----0-0-0------0--0-0-----0-0-0-----|
Db|-2--2-2-----2-2-2------2--2-2-----2-2-2-----|
Ab|-2--2-2-----2-2-2-2-0--2--2-2-----2-2-2-2-0-|
Eb|-0--0-0-----0-0-0-3-2--0--0-0-----0-0-0-3-2-|
    "...you ought to know"

Guitar 2
eb|--------------------------------------------|
Bb|------------0---------------------0---------|
Gb|--------0---------------------0-------------|
Db|------4---4-----------------4---4-----------|
Ab|----2---------------------2-----------------|
Eb|-0---------------------0--------------------|
   


Play Riff 1   "Wrote about in..."
Play Riff 2   "Oh..."

Riff 3 (distortion, solo rhythm)      
                         x2
eb|-----------------------|
Bb|-----------------------|
Gb|-----------------------|
Db|-----------------------|
Ab|-5--4--2-------2--2--2-|
Eb|-3--2--0-0-0-0-0--0--0-|
            * * *              
eb|----------------------------------------------|
Bb|----------------------------------------------|
Gb|----------------------------------------------|
Db|---------------------------7------------------|
Ab|-5--4--7-------7--7--7--5--5--2-------2--2--2-|
Eb|-3--2--5-5-5-5-5--5--5--3-----0-0-0-0-0--0--0-|
            * * *                  * * * 
                         x2
eb|-----------------------|
Bb|-----------------------|
Gb|-----------------------|
Db|-----------------------|
Ab|-5--4--2-------2--2--2-|
Eb|-3--2--0-0-0-0-0--0--0-|
            * * *              
eb|----------------------------------------------|
Bb|----------------------------------------------|
Gb|----------------------------------------------|
Db|---------------------------7------------------|
Ab|-5--4--7-------7--7--7--5--5--2-------2--2--2-|
Eb|-3--2--5-5-555-5--5--5--3-----0-0-0-0-0--0--0-|
            * ***                  * * * 
eb|-----------------------------------------------------|
Bb|-----------------------------------------------------|
Gb|-----------------------------------------------------|
Db|-----------------------------------------------------|
Ab|-5--4--7-------7-7-----------------5-------5--5--52-|
Eb|-3--2--5-5-555-5-5-5-5-555-55-4-44-3-3-333-3--3--3

ĂŽnscrie-te la newsletter


Like us on Facebook