Damien Bass Tab - Iced Earth






this is my first tab...

damien 

intro....

|-----8-----8-8-8-----8--------6-|
|-------------8------------------|
|-0-0---0-0-------0-0---0--4-4---|
|--------------------------------|

distorted gituar comes in

|-----------------------------|
|-----------------------------|
|-----------------------------|
|-1-0-1-0-0-0-0-0-0-0-0-0-0-0-|

|-----------------------------|
|-----------------------------|
|-----------------------------|
|-1-33-11-0-0-0-0-0-0-0-0-0-0-|



|-----------|-----------|--------------------------|-------------------------
|-----------|-----------|--------------------------|-----------------4h5p4---
|-----------|-----------|------------5h7h8p7-5-8p7~|------------5-7--------8-
|-0-00-00-0-|-0-00-00-0-|-0-00-00-0----------------|-0-00-00-0---------------



As the boy becomes a man..."

|---------------------------------|
|---------------------------------|
|-6-66-66/4-44-44/2-22-22/1-11-11-|
|---------------------------------|

"Embrace the hounds of hell..."



|-------------------|-----------------|------------------|-----------------|
|-------------------|-----------------|------------------|-----------------|
|-------------------|-----------------|------------------|-----------------|
|-55555555555555555-|-333333333333333-|-1111111111111111-|-000000000000000-|


then the slow part...

|-----8------8---------8~|-----8------8-----8-8/7-7-|
|------------------------|------------------------7-|
|-0-0---0-0----0-0-------|-0-0---0-0----0-0---------|
|------------------------|--------------------------|


then this part...

|---------------------------------|
|---------------------------------|
|-6-66-66/4-44-44/2-22-22/1-11-11-|
|---------------------------------|

"Now Disciples of the Watch..."
"AHHHH!!!"
double bass pedal part...
then the 1-0-1-0-0000000 part till fade..






there you go


have fun

ĂŽnscrie-te la newsletter


Like us on Facebook