Damien Tab - Iced Earth






Iced Earth:  Damien

transcribed by: Russ Elton (vicelton@yahoo.com)

FIND EVERY ICED EARTH SONG AND
THE MOST UPDATED VERSION OF THIS SONG AT:

                          The Frozen Palace
                  http://truemetal.org/icedearth/

Date last modified:  01/04/02
  
PLEASE DO NOT COPY THIS TAB TO ANOTHER SITE 
WITHOUT AUTHORS' PERMISSION.  THANK YOU.

Tuning: Eb

Riff 1 (Acoustic)
Guitar 1
eb|---------------------------------------|
Bb|---------------------------------------|
Gb|---------------------------------------|
Db|-9-xxxx-9-xxxx-9-9-7-xxxx-7-xxxx-7-7-|
Ab|-7-xxxx-7-xxxx-7-7-5-xxxx-5-xxxx-5-5-|
Eb|---------------------------------------|

eb|--------------------------------------------|
Bb|--------------------------------------------|
Gb|--------------------------------------------|
Db|-5-xxxx-5-xxxx-5-5--5-xxxx-5-xx-5-5-5-5-5/7-|
Ab|-3-xxxx-3-xxxx-3-3-2-xxxx-2-xx-2-2-2/3-3/5-|
Eb|--------------------------------------------|


Guitar 2
eb|-----------------------------------------|
Bb|--------------------10-------------------|
Gb|---9-11---12---11--------12---9-11-12-11-|
Db|-9------9----9----9----9----9------------|
Ab|-----------------------------------------|
Eb|-----------------------------------------|

eb|--------------------------------------|
Bb|--------------------10----------------|
Gb|---9-11---12---11--------12---9-11-12-|
Db|-9------9----9----9----9----9---------|
Ab|--------------------------------------|
Eb|--------------------------------------|


Riff 2 (Distortion)
eb|--------------------------------|
Bb|--------------------------------|
Gb|--------------------------------|
Db|--------------------------------|
Ab|-3-2-3-2------------------------|
Eb|-1-0-1-0-0-0-0-0-0-0-0-0-0-0-0--|
      *     * * * * * * * * * * * 
          "So a beast resides in me..."
eb|-----------------------------------|
Bb|-----------------------------------|
Gb|-----------------------------------|
Db|-----------------------------------|
Ab|-3-3/5-53-32---------------------|
Eb|-1-1/3-31-1

ĂŽnscrie-te la newsletter


Like us on Facebook