Frankenstein Tab - Iced Earth






Iced Earth
Frankenstein
The Horror Show
Tabbed By Kevin Cruz

Standard Tunning

E:-------------------------------|-------------------------------|
B:-------------------------------|-------------------------------|
G:-------------------------------|-------------------------------|
D:-------------------------------|-------------------------------|
A:--7-------8-7-5-7-5-7-------8--|--7-------8-7-5-7-5-7-------8--|
E:--5-5-5-5-6-5-3-5-3-5-5-5-5-6--|--5-5-5-5-6-5-3-5-3-5-5-5-5-6--|
      . . .             . . .         . . .             . . . 

E:-------------------------------|-------------------------------|
B:-------------------------------|-------------------------------|
G:-------------------------------|-------------------------------|
D:-------------------------------|-------------------------------|
A:--7-------8-7-5-7-5-7-------8--|--7-------8-7-5-7-5-7-------8--|
E:--5-5-5-5-6-5-3-5-3-5-5-5-5-6--|--5-5-5-5-6-5-3-5-3-5-5-5-5-6--|
      . . .             . . .         . . .             . . .

ĂŽnscrie-te la newsletter


Like us on Facebook