Greenface Tab - Iced Earth




Band- Iced Earth
Song- Greenface
Album- The Glorious Burden


Tuning: D (drop all strings a whole step)


Riff 1
Guitar 1
d|-----------------------------------|
A|-----------------------------------|
F|-----------------------------------|
C|-10-----9---------10-----9-----7---|
G|--8-----7----------8-----7-----5---|
D|----0-0---0-0-0-0----0-0---0-0---0-|
      * *   * * * *    * *   * *   *
d|----------------------------------|
A|----------------------------------|
F|----------------------------------|
C|-10-----9-------------------------|
G|--8-----7---------2-2-----2-2-----|
D|----0-0---0-0-0-0-0-0-0-0-0-0-0-0-|
      * *   * * * * * * * * * * * *

Guitar 2 (Some effect used on last four chords)
d|-----------------------------------|
A|-----------------------------------|
F|-----------------------------------|
C|-10-----9---------10-----9-----7---|
G|--8-----7----------8-----7-----5---|
D|----0-0---0-0-0-0----0-0---0-0---0-|
      * *   * * * *    * *   * *   *
d|------------------0-0-----0-0-----|
A|------------------0-0-----0-0-----|
F|----------------------------------|
C|-10-----9-------------------------|
G|--8-----7-------------------------|
D|----0-0---0-0-0-0-----0-0-----0-0-|
      * *   * * * *     * *     * *


Riff 2
d|---------------------------------------0--------0-|
A|---------------------------------------0--------0-|
F|---------------------------------------x--------x-|
C|------------------------------0-----0--2--------2-|
G|-2-2-2-0-0---0--------0-----2-----0----2--------2-|
D|-3-3-3-2-2-0-1--------1-333-----2------0--------0-|
   * * * * * *            *** * * * * *
d|---------------------------------------0----------------|
A|---------------------------------------0----------------|
F|---------------------------------------x----------------|
C|------------------------------0-----0--2----------------|
G|-2-2-2-0-0---0--------0-----2-----0----2--------3h5p3p0-|
D|-3-3-3-2-2-0-1--------1-333-----2------0----3h5---------|
   * * * * * *            *** * * * * *



Riff 3
d|-----------------------------------|
A|-----------------------------------|
F|-----------------------------------|
C|-----------------------------------|
G|-----------------------------------|
D|-0-000-0-000-00000-00000-000-00000-|
   * *** * *** ***** ***** *** *****
  "A warrior down to..."
d|---------------------------------|
A|---------------------------------|
F|---------------------------------|
C|---------------------------------|
G|----------------3--------3h5p3p0-|
D|-0-0-0-000-0000-0----3h5---------|
   * * * *** ****
  "...depths of my soul..."



Riff 4
d|--------------------------|
A|--------------------------|
F|--------------------------|
C|--------------------------|
G|-3------------5--------7-|
D|-1--1-1-1-1-1-3--3-3-3-5-|
      * * * * *    * * *
   "On land, in the air..."
d|---------------------------------|
A|---------------------------------|
F|---------------------------------|
C|--------9-9----10-10-----12-10---|
G|-2------7-7-----7--7------7--7---|
D|-0--0-0-----0-0------0-0-------0-|
      * *     * *      * *       *
   "...sea..."
d|--------------------------|
A|--------------------------|
F|--------------------------|
C|--------------------------|
G|-3------------5--------7-|
D|-1--1-1-1-1-1-3--3-3-3-5-|
      * * * * *    * * *
   "On danger..."



Play Riff 3   "My war face the last..."
Play Riff 4   "On land, in the air..."


Riff 5
d|----------------------------------|
A|----------------------------------|
F|----------------------------------|
C|----------------------------------|
G|--------------------------3h5p3p0-|
D|-0-000-000-0000000----3h5---------|
   * *** *** *******


Play Riff 1   "Ahh, greenface!"
Play Riff 2


Riff 6 (Solo Rhythm)
d|----------------------------------------|
A|----------------------------------------|
F|----------------------------------------|
C|-10-----9-------------------------------|
G|--8-----7-----------------------3h5p3p0-|
D|----000---000-0-000-000-000-3h5---------|
      ***   *** * *** *** ***
d|--------------------------|
A|--------------------------|
F|--------------------------|
C|-10-----9-----12----7--10-|
G|--8-----7-----10----5---8-|
D|----000---000-------------|
      ***   ***
d|----------------------------------------|
A|----------------------------------------|
F|----------------------------------------|
C|-10-----9-------------------------------|
G|--8-----7-----------------------3h5p3p0-|
D|----000---000-0-000-000-000-3h5---------|
      ***   *** * *** *** ***
d|----------------------------------------|
A|----------------------------------------|
F|----------------------------------------|
C|-10-----9-------------------------------|
G|--8-----7-----------------------3h5p3p0-|
D|----000---000-0-000-000-000-3h5---------|
      ***   *** * *** *** ***
d|--------------------------|
A|--------------------------|
F|--------------------------|
C|-10-----9-----12----7--10-|
G|--8-----7-----10----5---8-|
D|----000---000-------------|
      ***   ***
d|----------------------------------------|
A|----------------------------------------|
F|----------------------------------------|
C|-10-----9-------------------------------|
G|--8-----7-----------------------3h5p3p0-|
D|----000---000-0-000-000-000-3h5---------|
      ***   *** * *** *** ***


Solo
d|------------------------------|
A|------------------------------|
F|-------7h8p7------------------|
C|---6-9-a-----10-9-7-9--6------|
G|-7------------a-a-a-a--a-8-7~-|
D|-------------------------a-a--|

d|---------------------------------------------------|
A|-12h13-12p10---------------------------------------|
F|-------------12-10-9-------------------------------|
C|---------------------12-10-9-----------------------|
G|-----------------------------12-10-8---------------|
D|-------------------------------------12-10-8-7b8r7-|

d|--------------------------------------------------|
A|----------------9-12-9h12-12p10p9-13-12--10--9-9~-|
F|--------------9--------------------------------9~-|
C|-9b10r9~----9-------------------------------------|
G|--------------------------------------------------|
D|--------------------------------------------------|

d|--------------------------16-17-19/20-17-|
A|------------------------17---------------|
F|-9h10p9----9----------16-----------------|
C|--------12---12----18-------------------|
G|-----------------/19---------------------|
D|-----------------------------------------|

d|-19-----------16------------------|
A|----15-13-12-----18--17~----(17)-|
F|---------------------16~----(16)-|
C|----------------------------------|
G|----------------------------------|
D|----------------------------------|

d|--------------17-20-19------------|
A|------------18----------13---------|
F|----------17--------------16-------|
C|--------18------------------15-----|
G|------19----------------------14---|
D|-16h19--------------------------15-|

d|------------------------------------------------------|
A|-13b15-13-15p13-1312----12-13-12b13r12-12------------|
F|----------------------14-----------------a--9-7b9r7~-|
C|------------------------------------------------------|
G|------------------------------------------------------|
D|------------------------------------------------------|

d|----------17-19-20-19-20~~--|
A|-17-18-20-------------------|
F|----------------------------|
C|----------------------------|
G|----------------------------|
D|----------------------------|

End Solo


Play Riff 4  "On land, in the air..."


Guitar fill
d|------------------16----12----------------12-----------|
A|------------12-15----15----12-15-------15----15-17b19~-|
F|-14b16r14~-----------------------14b16-----------------|
C|-------------------------------------------------------|
G|-------------------------------------------------------|
D|-------------------------------------------------------|

End guitar fill


Play Riff 5  "...meat..."

Guitar fill
d|-/16-13-12-10-13-12-10----------------------------|
A|-----------------------13-12-10-------------------|
F|--------------------------------13-10-9-----------|
C|----------------------------------------12-10-9~~-|
G|--------------------------------------------------|
D|--------------------------------------------------|

End guitar fill


Play Riff 3  "Lagoons deep in jungles..."
Play Riff 4  "On land, in the air..."
Play Riff 5  "...meat..."
Play Riff 1  "Ahh, greenface!"


Ending:
d|---------------------------------------0--------0-|
A|---------------------------------------0--------0-|
F|---------------------------------------x--------x-|
C|------------------------------0-----0--2--------2-|
G|-2-2-2-0-0---0--------0-----2-----0----2--------2-|
D|-3-3-3-2-2-0-1--------1-333-----2------0--------0-|
   * * * * * *            *** * * * * *
d|---------------------------------------0--|
A|---------------------------------------0--|
F|---------------------------------------x--|
C|------------------------------0-----0--2--|
G|-2-2-2-0-0---0--------0-----2-----0----2--|
D|-3-3-3-2-2-0-1--------1-333-----2------0--|
   * * * * * *            *** * * * * *



Notation:

10^        = bend a quarter step.
10b11      = bend a half step.
10b12      = bend a full step.
10b12r10   = bend and release.
[10]12     = pre-bend.
[10]12r10  = pre-bend and release.
{14}       = pick the 14th fret while holding the most 
             previous bend.
       = touch the string above the 17th fret while 
             previous note(s) is(are) still ringing.

10b13*     = tremolo bar bend, from the 10th fret to the 13th fret.
7d4*       = tremolo bar dive, from the 7th fret to the 4th fret. 
12~*       = tremolo bar vibrato.

x   =  mute with fret-hand
*   =  palm mute
X\ =  pick slide
h   =  hammer-on
p   =  pull-off
~   =  vibrato
t   =  finger tap
/   =  slide up
   =  slide down
h.  =  natural harmonics
a   =  artificial harmonics
(9) =  ghost note
tm  =  trem picking
tr  =  trill
ĂŽnscrie-te la newsletter


Join the ranks ! LIKE us on Facebook