Im Ho Tep Tab - Iced Earth




Band- Iced Earth
Song- Im-Ho-Tep (Pharaoh's Curse)
Album- Horror Show

Tuning: Eb

Riff 1
Guitar 1
eb|---------------------------|
Bb|---------------------------|
Gb|---------------------------|
Db|-----------7----------7-6--|
Ab|-2---------5----------8-7--|
Eb|-0---------5--------0------|
                       *
eb|------0--------------------|
Bb|------0--------------------|
Gb|---------------------------|
Db|-----------7----------7-6--|
Ab|-2---------5----------8-7--|
Eb|-0---------5--------0------|
                       *

Guitar 2 (Final time omit ending slide)
eb|-------------------------------|
Bb|-------------------------------|
Gb|-------------------------------|
Db|---9-9~--9-9-6-7-/9~--9-9h10-9-|
Ab|-7-----------------------------|
Eb|-------------------------------|

eb|-------------------------------|
Bb|-------------------------------|
Gb|-------------------------------|
Db|-7-6-7-/7~----9-7h9p7-6--------|
Ab|------------------------8-7~~-|
Eb|-------------------------------|

Guitar 3 (Final time omit ending slide)
eb|----------------------------------------|
Bb|---12-12~--12-12-9-10-/12~--12-12h13-12-|
Gb|-9--------------------------------------|
Db|----------------------------------------|
Ab|----------------------------------------|
Eb|----------------------------------------|

eb|---------------------------------------|
Bb|-10-9-10-/10~----12-10h12p10-9---------|
Gb|-------------------------------10-9~~-|
Db|---------------------------------------|
Ab|---------------------------------------|
Eb|---------------------------------------|



Riff 2
Guitar 1
eb|-------------------------------|
Bb|-------------------------------|
Gb|-------------------------------|
Db|-------------------------------|
Ab|-2-----5-----4-----7-----5-----|
Eb|-0-----3-----2-----5-----3-----|

Guitar 2
eb|----------------------------------|
Bb|----------------------------------|
Gb|----------------------------------|
Db|----------7-----------------------|
Ab|---7-8-10---10-8-7---7-8-7-5-7-7~-|
Eb|-0-----------------0--------------|
    *                 *
eb|----------------------------------|
Bb|----------------------------------|
Gb|----------------------------------|
Db|----------7-----------------------|
Ab|---7-8-10---10-8-7---7-8-7-7-5-5~-|
Eb|-0-----------------0--------------|
    *                 *


Riff 3
Guitar 1                       Final chord
eb|----------------------------|-----|
Bb|----------------------------|-----|
Gb|----------------------------|-----|
Db|----------------------------|-----|
Ab|-2-2--2--2--2--2-2--2--2--2-|--2--|
Eb|-0-0--0--0--0--0-0--0--0--0-|--0--|
    * *  *  *  *  * *  *  *  * 
  "Time is the bond of mortal life..."

Guitar 2
eb|-------------------------|
Bb|-------------------------|
Gb|-------------------------|
Db|---9-10-12-10---9-10--9--|
Ab|---7--8-10--8---7--8--7--|
Eb|-0------------0----------|
    *            *
eb|-------------------------|
Bb|-------------------------|
Gb|-------------------------|
Db|---9-10--7-10---9-10--9--|
Ab|---7--8--5--8---7--8--7--|
Eb|-0------------0----------|
    *            *


Riff 4
Guitar 1                               
eb|---------------------------|
Bb|---------------------------|
Gb|---------------------------|
Db|---------------------------|
Ab|-------------------------5-| 
ĂŽnscrie-te la newsletter


Join the ranks ! LIKE us on Facebook