Life And Death Tab - Iced Earth




Iced Earth:  Life And Death

transcribed by:  Russ Elton (vicelton@yahoo.com)

FIND EVERY ICED EARTH SONG AND
THE MOST UPDATED VERSION OF THIS SONG AT:

                          The Frozen Palace
                  http://truemetal.org/icedearth/

Date last modified:  01/15/02
  
PLEASE DO NOT COPY THIS TAB TO ANOTHER SITE 
WITHOUT AUTHORS' PERMISSION.  THANK YOU.

Tuning: Eb

Riff 1
Guitar 1             
eb|--7--7-7---7--7-7-----7--7-7---7--7-7---|
Bb|--------0--------0----------0--------0--|
Gb|---------0--------0----------0--------0-|
Db|----------------------------------------| ---|
Ab|----------------------------------------|    |
Eb|----------------------------------------|    |
  "I came into this world..."                   |
                                                |--> Play 2x
eb|--5--5-5---5--5-5-----5--5-5---5--5-5---|    |
Bb|--------0--------0----------0--------0--|    |
Gb|---------0--------0----------0--------0-|    |
Db|----------------------------------------| ---|
Ab|----------------------------------------|
Eb|----------------------------------------|

eb|-3--3-3---0-----3--3-3---0---0-|
Bb|-------0--------------0--------|
Gb|--------0--------------0-------|
Db|-------------------------------|
Ab|-------------------------------|
Eb|-------------------------------|

Guitar 2
eb|--19b20r19~~~~~------------------|
Bb|---------------------------------|
Gb|-------------------14b15r14~~~~--|
Db|---------------------------------|
Ab|---------------------------------|
Eb|---------------------------------|


Ending to Riff 1
eb|-0--7-7-|
Bb|--------|
Gb|--------|
Db|--------|
Ab|--------|
Eb|--------|


Riff 2                                                      x4
eb|----------------------------------------------------------|
Bb|----------------------------------------------------------|
Gb|----------------------------------------------------------|
Db|-9-----9-----9---10-----9-----9---10-----9-----9---10-10-|
Ab|-7-777-7-777-7-7--8-777-7-777-7-7--8-777-7-777-7-7--8--8-|
Eb|----------------------------------------------------------|
      ***   ***   *    ***   ***   *    ***   ***   *

Riff 2a                                                    x2
eb|---------------------------------------------------------|
Bb|---------------------------------------------------------|
Gb|---------------------------------------------------------|
Db|-9--------------------------------------------------7--7-|
Ab|-7-777-7-777-7-77-8-777-7-777-7-77-8-777-7-777-7-77-8--8-|
Eb|---------------------------------------------------------|
      *** * *** * ** * *** * *** * ** * *** * *** * **
 

Riff 3                                           x2
eb|-----------------------------------------------|
Bb|-----------------------------------------------|
Gb|-----------------------------------------------|
Db|-9---9-10--9--7--9-10-12---12--14--12-10--9--7-|
Ab|-7---7--8--7--5--7--8-10---10--12--10--8--7--5-|
Eb|-----------------------------------------------|


Riff 3a
eb|---------------------------------|
Bb|---------------------------------|
Gb|---------------------------------|
Db|-9-----------9-10--9--7--9-10-12-|
Ab|-7-----2-----7--8--7--5--7--8-10-|
Eb|---0-0-0-0-0---------------------|
      * *   * *
eb|-----------------------------------|
Bb|-----------------------------------|
Gb|-----------------------------------|
Db|-------12-----------------10--9--7-|
Ab|-10-10-10-10-10-10-121210--8--7--5-|
Eb|-----------------------------------|
     *  *     *  *  *  * * * 


Riff 4 (Guitar 2 plays top notes)
eb|-----------------------------------|
Bb|-----------------------------------|
Gb|-----------------------------------|
Db|-----------------------------------|
Ab|-52--------------52--------------|
Eb|-3
ĂŽnscrie-te la newsletter


Join the ranks ! LIKE us on Facebook