Night Of The Stormrider (album) Tab - Iced Earth






Band - Iced Earth
Album - Night Of The Stormrider

Track Listings:
1. Angel's Holocaust
2. Stormrider
3. The Path I Choose
4. Before The Vision
5. Mystical End
6. Desert Rain
7. Pure Evil
8. Reaching The End
9. Travel In Stygian

----------------------------------------------------------

1. ANGEL'S HOLOCAUST
Tuning: Eb

Riff 1 
Guitar 1                 x2
eb|-----------------------|------------------------------|
Bb|-----------------------|------------------------------|
Gb|-----------------------|------------------------------|
Db|----------1211-119-9-|----------1211-12--14--12-11-|
Ab|-----1010-10-9--97-7-|-----1010-10-9-10--12--10--9-|
Eb|-0-0-------------------|-0-0--------------------------|
    * *  * *                * *  * *         

Guitar 2 (Choir harmony arranged for guitar, 3rd & 4th times)
                     x2
eb|-------------------|------------------------|
Bb|-------------------|------------------------|
Gb|-------------------|------------------------|
Db|-----9-9-97-75-5-|-----9-9-97-9--10--9-7-|
Ab|-------------------|------------------------|
Eb|-0-0---------------|-0-0--------------------|
    * * * *             * * * *         


Riff 2
eb|----------------------------------|
Bb|----------------------------------|
Gb|----------------------------------|
Db|-9--9--9--9-10-9------------------|
Ab|-7--7--7--7--8-7--9--9--9--9-10-9-|
Eb|------------------7--7--7--7--8-7-|

eb|----------------------------|
Bb|----------------------------|
Gb|----------------------------|
Db|-7--7--7--7-9-7--9--9--9----|
Ab|-5--5--5--5-7-5--7--7--7-77-|
Eb|----------------------------|
                            **
eb|----------------------|
Bb|----------------------|
Gb|----------------------|
Db|-10-9----10-9----109-|
Ab|--8-7-77--8-7-77--87-|
Eb|----------------------|
         **      **


Riff 3 (Acoustic, Play 3x)
                  x4
eb|-------0--------|--------------------------------|
Bb|----------0-----|-------0------------------------|
Gb|------------0---|-----0----0---------------------| 
Db|-----4--------4-|---2--------2-0-----0-----0-----|
Ab|---2------------|-3----------------2-----0-----2-|
Eb|-0--------------|----------------3-----2-----3---|
   "As I walk through..." 

eb|-------0--------------0--------|
Bb|----------0--------------0-----|
Gb|------------0--------------0---|
Db|-----4--------4-----4--------4-|
Ab|---2--------------2------------|
Eb|-0--------------0--------------|


Riff 4 (Distortion)
eb|-------------------------------|
Bb|-------------------------------|
Gb|-------------------------------|
Db|-------------------------------|
Ab|-4----4---------4----4---------|
Eb|-2--0-2--0-2220-2--0-2--0-2220-|
       *    * ****    *    * ****
  "I fight back..."
eb|--------------------------------|
Bb|--------------------------------|
Gb|--------------------------------|
Db|------3--------------3----------|
Ab|-2----1--1-1111-2----1--1-1111--|
Eb|-0--0-----------0--0------------|
       *    * ****    *    * ****
   "...see..."


Riff 5 (Acoustic, Solo Rhythm)
eb|---------------------------------|
Bb|-----0---0-----------0-----0-----|
Gb|---0---0---0---0---2-----4-------|
Db|-2-----------2---3-----5-----5-3-|
Ab|---------------------------------|
Eb|---------------------------------|

Solo
eb|--------------------------------------------|
Bb|-------------15-20-17~--17h20-17--17h18-15~-|
Gb|-------14-16--------------------------------|
Db|-14-17--------------------------------------|
Ab|--------------------------------------------|
Eb|--------------------------------------------|

eb|--------------------------------------------|
Bb|-------------15-20-17~--17h20-17------------|
Gb|-------14-16----------------------16h19-16~-|
Db|-14-17--------------------------------------|
Ab|--------------------------------------------|
Eb|--------------------------------------------|

eb|----19~---/22-19h22p1917---19-17h19p1715------------------|
Bb|-17----------------------20---------------18-15b17~-(17)r15-|
Gb|------------------------------------------------------------|
Db|------------------------------------------------------------|
Ab|------------------------------------------------------------|
Eb|------------------------------------------------------------|

eb|-------19-22b24r22-22b24~-|
Bb|----22--------------------|
Gb|-19-----------------------|
Db|--------------------------|
Ab|--------------------------|
Eb|--------------------------|

End solo


Riff 5a (Acoustic)
eb|----------0-----------------------|
Bb|------0-----0---------0-----0-----|
Gb|----0---0-----0-----2-----4-------|
Db|--2-------------2-3-----5-----5-3-|
Ab|----------------------------------|
Eb|----------------------------------|
   "He didn't think..."   


Riff 6 (Distortion)                              x2
eb|-----------------------------------------------|
Bb|-----------------------------------------------|
Gb|-----------------------------------------------|
Db|-9---9-9--9--9--9--10----9---9-9--9--9--10--9--|
Ab|-7-777-7--7--7--7---8----7-777-7--7--7---8--7--|
Eb|-----------------------------------------------|


Riff 6a (Play 2x)
eb|-------------------------------|
Bb|-------------------------------|
Gb|-------------------------------|
Db|-9-----9---9-----9--10----109-|
Ab|-7-777-7-7-7-777-7-0-8-----87-|
Eb|-------------------------------|
      ***   *   ***   *
  "Hate filled screams..."
eb|-------------------------------|
Bb|-------------------------------|
Gb|-------------------------------|
Db|-9-----9---9-----10---9----97-|
Ab|-7-777-7-7-7-777--8-0-7----75-|
Eb|-------------------------------|
      ***   *   ***    *
  "...break the silence..."


Riff 6b (Play 2x)
eb|-------------------------------|
Bb|-------------------------------|
Gb|-------------------------------|
Db|-9-----9---9-----9-------------|
Ab|-7-777-7-7-7-777-7-0-8-----87-|
Eb|---------------------8-----87-|
      ***   *   ***   *
  "Blasphemy..."
eb|-------------------------------|
Bb|-------------------------------|
Gb|-------------------------------|
Db|-9-----9---9-----10------------|
Ab|-7-777-7-7-7-777--8-0-7----75-|
Eb|----------------------7----75-|
      ***   *   ***    *
  "...in the masses..."


Riff 7
eb|------------------------|
Bb|------------------------|
Gb|------------------------|
Db|-7--7-9-7---------------|
Ab|-5--5-7-5--7-8--8-9-8-7-|
Eb|-----------5-6--6-7-6-5-|

eb|----------------------------------|
Bb|----------------------------------|
Gb|-9-----9-----10-----7-----9---9---|
Db|-9-----9-----10-----7-----9---9---|
Ab|---777---777----777---777---7---0-|
Eb|----------------------------------|
      ***   ***    ***   ***   *   *
eb|------------------------|
Bb|------------------------|
Gb|------------------------|
Db|-7--7-9-7---------------|
Ab|-5--5-7-5--7-8--8-9-8-7-|
Eb|-----------5-6--6-7-6-5-|


Play Riff 6a   "Fear the angel's..."
Play Riff 6b   "Death and hatred..."


Riff 7a
eb|------------------------|
Bb|------------------------|
Gb|------------------------|
Db|-7--7-9-7---------------|
Ab|-5--5-7-5--7-8--8-9-8-7-|
Eb|-----------5-6--6-7-6-5-|

eb|----------------------------------|
Bb|----------------------------------|
Gb|-9-----9-----10-----7-----9---9---|
Db|-9-----9-----10-----7-----9---9---|
Ab|---777---777----777---777---7---0-|
Eb|----------------------------------|
      ***   ***    ***   ***   *   *
eb|------------------------|
Bb|------------------------|
Gb|------------------------|
Db|-7--7-9-7---------------|
Ab|-5--5-7-5--7-8--8-9-8-7-|
Eb|-----------5-6--6-7-6-5-|

eb|-----------------------------|
Bb|-----------------------------|
Gb|-----------------------------|
Db|-----------------------------|
Ab|-2-2-2-2-2-2-2-2-2-2-2-2-2-2-|
Eb|-0-0-0-0-0-0-0-0-0-0-0-0-0-0-|
      * * * * * * * * * * * * * 


Riff 7b
eb|------------------------|
Bb|------------------------|
Gb|------------------------|
Db|-7--7-9-7---------------|
Ab|-5--5-7-5--7-8--8-9-8-7-|
Eb|-----------5-6--6-7-6-5-|
                                    x3
eb|----------------------------------|
Bb|----------------------------------|
Gb|-9-----9-----10-----7-----9---9---|
Db|-9-----9-----10-----7-----9---9---|
Ab|---777---777----777---777---7---7-|
Eb|----------------------------------|
      ***   ***    ***   ***   *   *
eb|----------------------------------|
Bb|----------------------------------|
Gb|-9-----9-----10-----7-----9---9---|
Db|-9-----9-----10-----7-----9---9---|
Ab|---777---777----777---777---7---0-|
Eb|----------------------------------|
      ***   ***    ***   ***   *   *


Riff 8
Guitar 1
eb|---------------------------------|
Bb|---------------------------------|
Gb|---------------------------------|
Db|---------------------------------|
Ab|-7-777-7-777-777-8-777-7-777-777-|
Eb|---------------------------------|
    * *** * *** *** * *** * *** ***
eb|---------------------------------|
Bb|---------------------------------|
Gb|---------------------------------|
Db|---------------------------------|
Ab|-8-777-7-777-777-8-777-7-777-777-|
Eb|---------------------------------|
    * *** * *** *** * *** * *** ***
eb|---------------------------------|
Bb|---------------------------------|
Gb|---------------------------------|
Db|---------------------------------|
Ab|-8-888-8-888-888-9-888-8-888-888-|
Eb|---------------------------------|
    * *** * *** *** * *** * *** ***
eb|---------------------------------|
Bb|---------------------------------|
Gb|---------------------------------|
Db|---------------------------------|
Ab|-9-888-8-888-888-9-888-8-888-888-|
Eb|---------------------------------|
    * *** * *** *** * *** * *** *** 

Guitar 2
eb|---------------|
Bb|---------------|
Gb|---------------|
Db|---------------|
Ab|--2------5---3-|
Eb|--0------3---1-|

Guitar 3
eb|-5------7-------12------------------|
Bb|-h.-5---h.--7---h.--12----(12)~~~~*-|
Gb|----h.------h.------h.--------------|
Db|------------------------------------|
Ab|------------------------------------|
Eb|------------------------------------|

eb|---------------------------|
Bb|-7-----7--------5--(5)~~~*-|
Gb|-h.-7--h.-7--5--h.--h.-----|
Db|----h.----h.-h.------------|
Ab|---------------------------|
Eb|---------------------------|

eb|-5----------------------------------|
Bb|-h.-5---7-----------12----(12)~~~~*-|
Gb|----h.--h.---7------h.--------------|
Db|-------------h.---------------------|
Ab|------------------------------------|
Eb|------------------------------------|

eb|----------------------|
Bb|----------------------|
Gb|----------------------|
Db|--------7/10-10/15~~~-|
Ab|----------------------|
Eb|----------------------|

eb|---------------------------------------|
Bb|---------------------------------------|
Gb|--????---------------------------------|
Db|---------------------------------------|
Ab|---------------------------------------|
Eb|---------------------------------------|

eb|---------------------------------------|
Bb|---------------------------------------|
Gb|---------------------------------------|
Db|---------------------------------------|
Ab|---------------------------------------|
Eb|---------------------------------------|



Riff 9 (Solo Rhythm)
First time:
eb|------------------------------------------------|
Bb|------------------------------------------------|
Gb|------------------------------------------------|
Db|-9-999-7-9--9-999-7-9--------------------------|
Ab|-7-777-5-7--7-777-5-7--7-8--8-9---7--7---7-8-7-|
Eb|------------------------5-6--6-7-0-5--5-0-5-6-5-|
                                    *      * * *
eb|------------------------------------------------|
Bb|------------------------------------------------|
Gb|------------------------------------------------|
Db|-------7-9--9-999-7-9--------------------------|
Ab|-7-777-5-7--7-777-5-7--7-8--8-9---7--7---7-8-5-|
Eb|------------------------5-6--6-7-0-5--5-0-5-6-3-|
    * ***                           *      * * *

Rest of the time:
eb|------------------------------------------------|
Bb|------------------------------------------------|
Gb|------------------------------------------------|
Db|-------7-9--------7-9--------------------------|
Ab|-7-777-5-7--7-777-5-7--7-8--8-9---7--7---7-8-7-|
Eb|------------------------5-6--6-7-0-5--5-0-5-6-5-|
    * ***       * ***               *      * * *
eb|------------------------------------------------|
Bb|------------------------------------------------|
Gb|------------------------------------------------|
Db|-------7-9--------7-9--------------------------|
Ab|-7-777-5-7--7-777-5-7--7-8--8-9---7--7---7-8-5-|
Eb|------------------------5-6--6-7-0-5--5-0-5-6-3-|
    * ***       * ***               *      * * *



Solo
eb|-------------------------------------------------------------|
Bb|-17t15p13h15p13-15t14p12h14p12-17t15p13h15p13-15t14p12h14p12-|
Gb|-------------------------------------------------------------|
Db|-------------------------------------------------------------|
Ab|-------------------------------------------------------------|
Eb|-------------------------------------------------------------|

eb|-------------------------------------------------------------|
Bb|-17t15p13h15p13-15t14p12h14p12-17t15p13h15p13-15t14p12h14p12-|
Gb|-------------------------------------------------------------|
Db|-------------------------------------------------------------|
Ab|-------------------------------------------------------------|
Eb|-------------------------------------------------------------|

eb|-------------------------------------------------------------|
Bb|-18t15p13h15p13-17t14p12h14p12-18t15p13h15p13-17t14p12h14p12-|
Gb|-------------------------------------------------------------|
Db|-------------------------------------------------------------|
Ab|-------------------------------------------------------------|
Eb|-------------------------------------------------------------|

eb|--------------------------------------|
Bb|-15t14p12h14p12/-20t18--20t17--20t15--|
Gb|--------------------------------------|
Db|--------------------------------------|
Ab|--------------------------------------|
Eb|--------------------------------------|

eb|-------------------------------------------------------------|
Bb|-18-17-15--17--15--------------------------------------------|
Gb|-------------------17-15-17b18r17----------------------------|
Db|--------------------------a--------18~----18b19~~---(19)r18-|
Ab|-------------------------------------------------------------|
Eb|-------------------------------------------------------------|

eb|---------------------------------------------|
Bb|---------------------------------------------|
Gb|-16-19-19p16-16-16-16~-----------------------|
Db|-----------------------16-19-19p16-16-16-16~-|
Ab|-----------------------------a------a--a-----|
Eb|---------------------------------------------|

eb|-------------------------------------------|
Bb|-------------------------------------------|
Gb|-16h19p16-16-17-16---------19p16-----------|
Db|---------------------19p16--a----19p16-----|
Ab|----------------------a-----------a----19~-|
Eb|----------------------------------------a--|

eb|---------------------------------------------|
Bb|---------------------------------------------|
Gb|---------------------------------------------|
Db|-16-19-19p16-16-17-16~--16-19-16--16--17-16~-|
Ab|-------------------------a--a--a---a---a--a--|
Eb|---------------------------------------------|

eb|------------------------------------------|
Bb|------------------------------------------|
Gb|-16-19-16--16--17-16~~--17-14-14--16~--14-|
Db|--a--a--a---a---a--a-----a--a--a---a----a-|
Ab|------------------------------------------|
Eb|------------------------------------------|

eb|----------------------------------------|
Bb|-12-15-12--12-12~--10-14-10--10--14-10~-|
Gb|--a--a--a---a--a----a--a--a---a---a--a--|
Db|----------------------------------------|
Ab|----------------------------------------|
Eb|----------------------------------------|

eb|-------------------------------|
Bb|-8-12-8--8--12-8~--10-7-7-8--7-|
Gb|-a--a-a--a---a-a----a-a-a-a--a-|
Db|-------------------------------|
Ab|-------------------------------|
Eb|-------------------------------|

eb|---------------------------|
Bb|---------------------------|
Gb|-9-7-7-9--7---12-9-9-12--9-|
Db|-a-a-a-a--a----a-a-a--a--a-|
Ab|---------------------------|
Eb|---------------------------|

eb|--------------------------------------|
Bb|--------------------------------------|
Gb|---------------------------------7~---|
Db|---------------------------------a----|
Ab|-9---------10-9-------12-10-9---------|
Eb|---12-10-9------12-10---------12------|

eb|-------14/15~-14----14----------------------------|
Bb|-12-17-----------17----17-15----------------------|
Gb|-----------------------------(16)/17~--17--12/14~-|
Db|----------------------------------------a---------|
Ab|--------------------------------------------------|
Eb|--------------------------------------------------|

eb|-------------------------------------|
Bb|-------------------------------------|
Gb|-14-12-11-12-11-9-11-9-7-9-7-6-7-6---|
Db|-----------a-----------------------9-|
Ab|-------------------------------------|
Eb|-------------------------------------|

Random artificial harmonics in this bar:
eb|------------------------------------|
Bb|------------------------------------|
Gb|-7-6---6-----6----------------------|
Db|-----9---9-7---9-7-9-7-6-7-6---6----|
Ab|-----------------------------9---9--|
Eb|------------------------------------|

End Solo


Ending
Guitar 1
eb|------------------------|
Bb|------------------------|
Gb|------------------------|
Db|----------------------2-|
Ab|-4---------3----------0-|
Eb|-2--2-2-2--1--1-1-1-----|
       * * *     * * *
Guitar 2
eb|---------------------------------|
Bb|---------------------------------|
Gb|-11--11-9---------9-11-12--/14~--|
Db|----------12--10-----------------|
Ab|---------------------------------|
Eb|---------------------------------|

Guitar 3
eb|--------------------------------|
Bb|-10--10-8--------8-10-12--/17~--|
Gb|----------11-10-----------------|
Db|--------------------------------|
Ab|--------------------------------|
Eb|--------------------------------|

The next part is the bridge between Angel's and Stormrider.  On one cd it's the 
end of Angel's, the other it's the beginning of Stormrider.  So here it is.

(12 String Acoustic)
Guitar 1           x2                x2
eb|-----------------|-----------------|
Bb|-----------------|-----------------|
Gb|-----9-------9---|-----7-------7---|
Db|---7---7---7---7-|---5---5---5---5-|
Ab|-0-------0-------|-0-------0-------|
Eb|-----------------|-----------------|
   "As I travel through..."

Guitar 2 (Distortion, Volume swells)
eb|-------------------------------|
Bb|-------------------------------|
Gb|-------------------------------|
Db|-14---------------14-------12--|
Ab|---------10----------------10--|
Eb|-------------------------------|

eb|----------------------------------|
Bb|----------------------------------|
Gb|----------------------------------|
Db|-14--------12--------14--------12-|
Ab|-12--------10--------12--------10-|
Eb|----------------------------------|
   "Lightning breaks..."
eb|--------------------------------|
Bb|--------------------------------|
Gb|--------------------------------|
Db|-10--------9----7---------------|
Ab|--8--------7----5-------------2-|
Eb|---------------------0000-...-0-|

------------------------------------------------

2. STORMRIDER
Tuning: Eb

This part is the bridge between Angel's and Stormrider.  On one cd it's the 
end of Angel's, the other it's the beginning of Stormrider.

(12 String Acoustic)
Guitar 1           x2                x2
eb|-----------------|-----------------|
Bb|-----------------|-----------------|
Gb|-----9-------9---|-----7-------7---|
Db|---7---7---7---7-|---5---5---5---5-|
Ab|-0-------0-------|-0-------0-------|
Eb|-----------------|-----------------|
   "As I travel through..."

Guitar 2 (Distortion, Volume swells)
eb|-------------------------------|
Bb|-------------------------------|
Gb|-------------------------------|
Db|-14---------------14-------12--|
Ab|---------10----------------10--|
Eb|-------------------------------|

eb|----------------------------------|
Bb|----------------------------------|
Gb|----------------------------------|
Db|-14--------12--------14--------12-|
Ab|-12--------10--------12--------10-|
Eb|----------------------------------|
   "Lightning breaks..."
eb|--------------------------------|
Bb|--------------------------------|
Gb|--------------------------------|
Db|-10--------9----7---------------|
Ab|--8--------7----5-------------2-|
Eb|---------------------0000-...-0-|


Stormrider

Riff 1
eb|---------------------------------|
Bb|---------------------------------|
Gb|---------------------------------|
Db|---------------------------------|
Ab|------------------------4--4-4-4-|
Eb|-0-0-2-000-3-000-6-000--2--2-2-2-|
    * * * *** * *** * ***           
   "Storming demons..."
eb|---------------------------------|
Bb|---------------------------------|
Gb|---------------------------------|
Db|---------------------------------|
Ab|------------------------3--3-3-3-|
Eb|-0-0-2-000-3-000-2-000--1--1-1-1-|
    * * * *** * *** * ***
   "The time is almost here..."

Final time:
eb|---------------------------------|
Bb|---------------------------------|
Gb|---------------------------------|
Db|---------------------------------|
Ab|------------------------3--3-3-2-|
Eb|-0-0-2-000-3-000-2-000--1--1-1-0-|
    * * * *** * *** * ***
   "My screams..."



Riff 2
eb|---------------------------------|
Bb|---------------------------------|
Gb|---------------------------------|
Db|-------------------------------3-|
Ab|---------------5---------------1-|
Eb|-0-000-000-000-3-0-000-000-000---|
    * *** *** ***   * *** *** ***    
  "I can feel..."
eb|---------------------------------------------|
Bb|---------------------------------------------|
Gb|---------------------------------------------|
Db|---------------------------------------------|
Ab|---------------4-------5-----3-------5-5-4-3-|
Eb|-0-000-000-000-2-0-000-3-3p0-1-0-000-3-3-2-1-|
    * *** *** ***   * *** *       * *** * * * 
  "...the pain is its reality..."


Riff 3
eb|--------------------------------------------|
Bb|--------------------------------------------|
Gb|--------------------------------------------|
Db|--------------------------------------------|
Ab|-2-----------4-----------3-----------2------| keep picking
Eb|-0----00-6-3-2----00-3-2-1----00-3-2-0--17-| through slide
         ** * *      ** * *      ** * * 
  "Fight on, grab on..."
eb|---------------------------------------------|
Bb|---------------------------------------------|
Gb|---------------------------------------------|
Db|---------------------------------------------|
Ab|-2-----------4-----------3-----------2-------|
Eb|-0----00-6-3-2----00-3-2-1----00-3-2-0--/17-|
         ** * *      ** * *      ** * *
  "Fight on, grab on..."


Riff 4
eb|---------------------------------|
Bb|---------------------------------|
Gb|---------------------------------|
Db|-------9-------9-------9-------9-|
Ab|-------7-------7-------7-------7-|
Eb|-0-000---0-000---0-000---0-000---|
    * ***   * ***   * ***   * ***    
eb|------------------------------------------|
Bb|------------------------------------------|
Gb|------------------------------------------|
Db|-------5-------4-------5-----7-----8-7-5-|
Ab|-------7-------5-5-555---555---555-------|
Eb|-0-000----0-000---------------------------|
    * ***    * ***   * ***   ***   *** 
eb|-----------------------------------------|
Bb|-----------------------------------------|
Gb|-----------------------------------------|
Db|-------5-------4-------5-----7-----4tr5-|
Ab|-------7-------5-5-555---555---555------|
Eb|-0-000----0-000--------------------------|
    * ***    * ***   * ***   ***   ***       
eb|------------------------------------------|
Bb|------------------------------------------|
Gb|------------------------------------------|
Db|-------5-------4-------5-----7-----8-7-5-|
Ab|-------7-------5-5-555---555---555-------|
Eb|-0-000----0-000---------------------------|
    * ***    * ***   * ***   ***   *** 
eb|------------------------------------------|
Bb|------------------------------------------|
Gb|------------------------------------------|
Db|-------5-------4-------5-----7-----4-5-4-|
Ab|-------7-------5-5-555---555---555-------|
Eb|-0-000----0-000---------------------------|
    * ***    * ***   * ***   ***   ***
       

Riff 5
eb|-------------------------------------------------|
Bb|-------------------------------------------------|
Gb|-------------------------------------------------|
Db|-------------------------------------------------|
Ab|-------------------------------------------------|
Eb|-0-000-0-000-0-000-0-000-0-000-0-000-0-000-0-000-|
    * *** * *** * *** * *** * *** * *** * *** * ***

Riff 5a
Guitar 1 
eb|----------------------------------------------------|
Bb|----------------------------------------------------|
Gb|----------------------------------------------------|
Db|----------------------------------------------------|
Ab|-------------------------------------5-555-5-7-8-7-|
Eb|-0-000-0-000-0-000-0-000-0-000-0-000----------------|
    * *** * *** * *** * *** * *** * *** * *** * * *
eb|-------------------------------------------|
Bb|-------------------------------------------|
Gb|-------------------------------------------|
Db|-------------------------------------------|
Ab|-------------------------------------------|
Eb|-0-000-0-000-0-000-0-000-0-000-0-000-0-000-|
    * *** * *** * *** * *** * *** * *** * ***
eb|----------------------------------------------------|
Bb|----------------------------------------------------|
Gb|----------------------------------------------------|
Db|----------------------------------------------------|
Ab|-------------------------------------5-555-5-7-8-7-|
Eb|-0-000-0-000-0-000-0-000-0-000-0-000----------------|
    * *** * *** * *** * *** * *** * *** * *** * * *
eb|--------------------|
Bb|--------------------|
Gb|--------------------|
Db|--------------------|
Ab|--------------------|
Eb|-0-000-0-000-10-9-8-|
    * *** * ***  * * *

Guitar 2
eb|----------------------------------------------------|
Bb|----------------------------------------------------|
Gb|----------------------------------------------------|
Db|-12----------------------7--------------------------|
Ab|-10----------------------5-----------5-555-5-7-8-7-|
Eb|----------------------------------------------------|
                                        * *** * * * 
eb|-------------------------------------------|
Bb|-------------------------------------------|
Gb|-------------------------------------------|
Db|-------------------------------------------|
Ab|-------------------------------------------|
Eb|-0-000-0-000-0-000-0-000-0-000-0-000-0-000-|
    * *** * *** * *** * *** * *** * *** * ***
eb|----------------------------------------------------|
Bb|----------------------------------------------------|
Gb|----------------------------------------------------|
Db|-12----------------------7--------------------------|
Ab|-10----------------------5-----------5-555-5-7-8-7-|
Eb|----------------------------------------------------|
                                        * *** * * * 


Riff 6 (Solo Rhythm)         x3 
eb|---------------------------|---------------------|
Bb|---------------------------|---------------------|
Gb|---------------------------|---------------------|
Db|-10-----9------------------|-9--9-9-9-10---------|
Ab|--8-----7------------------|-7--7-7-7--8---------| 
Eb|----0-0---000-0-000-10-9-8-|-7--7-7-7--8--10-9-8-| 
       * *   *** * ***  * * *                 * * * 
                             x3 
eb|---------------------------|--------------------|
Bb|---------------------------|--------------------|
Gb|---------------------------|--------------------|
Db|-10-----9------------------|-7--7-7-7-8---------|
Ab|--8-----7------------------|-5--5-5-5-6---------|
Eb|----0-0---000-0-000-10-9-8-|-5--5-5-5-6--10-9-8-|
       * *   *** * ***  * * *                * * *
                             x3 
eb|---------------------------|---------------------|
Bb|---------------------------|---------------------|
Gb|---------------------------|---------------------|
Db|-10-----9------------------|-9--9-9-9-10---------|
Ab|--8-----7------------------|-7--7-7-7--8---------| 
Eb|----0-0---000-0-000-10-9-8-|-7--7-7-7--8--10-9-8-| 
       * *   *** * ***  * * *                 * * * 
                             x3 
eb|---------------------------|----------------|
Bb|---------------------------|----------------|
Gb|---------------------------|----------------|
Db|-10-----9------------------|-7--7-7-7-8--8-|
Ab|--8-----7------------------|-5--5-5-5-6--6-| 
Eb|----0-0---000-0-000-10-9-8-|-5--5-5-5-6--6-| 
       * *   *** * ***  * * *

Solo (Various pinch harmonics throughout)
eb|--------------------------------------|
Bb|----------10-9-8tr9--8-------8-7-6tr7-|
Gb|-9-8-9-10--------------7-8-9----------|
Db|--------------------------------------|
Ab|--------------------------------------|
Eb|--------------------------------------|

eb|-----------------------------------13-|
Bb|---------------------------------------|
Gb|-10-------9-8-7tr8-----------9tr10-----|
Db|----7-8-9-----------9------------------|
Ab|--------------------a---7tr8-----------|
Eb|---------------------------------------|

eb|------------------------------------|
Bb|--------10-9-8tr9--8-------8-7-6tr7-|
Gb|-8-9-10--------------7-8-9----------|
Db|------------------------------------|
Ab|------------------------------------|
Eb|------------------------------------|

eb|----------------------------------10h11/-|
Bb|-----------------------------------------|
Gb|-10-------9-8-7tr8-----------7tr8--------|
Db|----7-8-9-----------9-------------------|
Ab|--------------------a---5tr6-------------|
Eb|-----------------------------------------|

eb|-------20-------------------------19--------|
Bb|----------------20-------19-----------------|
Gb|----------17-17----16-16--------------------|
Db|-17-17----------------------16-16----16-16--|
Ab|--------------------------------------------|
Eb|--------------------------------------------|

eb|-19--------------------------18-------|
Bb|----------18-------17-----------------|
Gb|----16-16----15-15--------------------|
Db|----------------------15-15----17-17--|
Ab|--------------------------------------|
Eb|--------------------------------------|

eb|-20-------------------------19--------|
Bb|----------20-------19-----------------|
Gb|----17-17----16-16-------------16-16--|
Db|----------------------16-16-----------|
Ab|--------------------------------------|
Eb|--------------------------------------|

eb|-----------------------------------|
Bb|-19-------18--------17-------------|
Gb|----16-15-----------19b21----------|
Db|-------------17-17-----------17-17-|
Ab|-----------------------------------|
Eb|-----------------------------------|
 
eb|-20-------------------------19--------|
Bb|----------20-------19-----------------|
Gb|----17-17----16-16--------------------|
Db|----------------------16-16----16-16--|
Ab|--------------------------------------|
Eb|--------------------------------------|

eb|-19--------------------------18-------|
Bb|----------18-------17-----------------|
Gb|----16-16----15-15--------------------|
Db|----------------------15-15----17-17--|
Ab|--------------------------------------|
Eb|--------------------------------------|

eb|-20-------------------------19--------|
Bb|----------20-------19-----------------|
Gb|----17-17----16-16-------------16-16--|
Db|----------------------16-16-----------|
Ab|--------------------------------------|
Eb|--------------------------------------|

eb|--------------------------------------------|
Bb|-19-------18--------17-------20-------19----|
Gb|----16-15-----------19b21r19-22b24r22-21b23-|
Db|-------------17-17--------------------------|
Ab|--------------------------------------------|
Eb|--------------------------------------------|

End solo

Riff 7 (Guitar 2 comes in just playing the chords)
eb|---------------------------------|
Bb|---------------------------------|
Gb|---------------------------------|
Db|-------------4-444-2-222---------|
Ab|-------4-444-------------5-5-4-0-|
Eb|-2-222---------------------------|
    * *** * *** * *** * *** * * * * 
eb|---------------------------------|
Bb|---------------------------------|
Gb|---------------------------------|
Db|---------------------------------|
Ab|---------------------------------|
Eb|-3-333-3-333-333-5-555-6-666-5-5-|
    * *** * *** *** * *** * *** * *


Riff 7a
eb|---------------------------------|
Bb|---------------------------------|
Gb|---------------------------------|
Db|-------------4-444-2-222---------|
Ab|-------4-444-------------5-5-4-0-|
Eb|-2-222---------------------------|

eb|---------------------------------|
Bb|---------------------------------|
Gb|---------------------------------|
Db|---------------------------------|
Ab|---------------------------------|
Eb|-3-333-3-333-333-5-555-6-666-5-5-|


Riff 8
eb|----------------------------------|
Bb|----------------------------------|
Gb|----------------------------------|
Db|----------------------------------|
Ab|----------------------------------|
Eb|-0-000-000-000-000-000-000-000-00-|
    * *** *** *** *** *** *** *** ** 
eb|---------------------------------|
Bb|---------------------------------|
Gb|---------------------------------|
Db|---------------------------------|
Ab|---------------------------------|
Eb|-2-222-222-222-222-222-222-222-2-|
    * *** *** *** *** *** *** *** *

Riff 8a
eb|-------------------------------|
Bb|-------------------------------|
Gb|-------------------------------|
Db|-------------------------------|
Ab|-----------------2-----3-----2-|
Eb|-000-000-000-000---0-0---0-0---|
    *** *** *** ***   * *   * *    
eb|-------------------------------|
Bb|-------------------------------|
Gb|-------------------------------|
Db|-------------------------------|
Ab|-----------------4-----5-----4-|
Eb|-222-222-222-222---2-2---2-2---|
    *** *** *** ***   * *   * * 


Riff 9
Guitar 1
eb|--------------------------|
Bb|--------------------------|
Gb|--------------------------|
Db|-------9-----7------------|
Ab|-2-------------10-9-------|
Eb|-0-0-0---0-0--------0-000-|
      * *   * *        * ***
eb|--------------------------|
Bb|--------------------------|
Gb|--------------------------|
Db|--------------------------|
Ab|-2-----7-7-7-10-7-7-------|
Eb|-0-0-0--------------0-000-|
      * *              * ***

Guitar 2
eb|-------------------------|
Bb|----12-------12-10-------|
Gb|-11-------11-------12-11-|
Db|-------------------------|
Ab|-------------------------|
Eb|-------------------------|

eb|-------------------------------|
Bb|----13-------13-12----------13-|
Gb|-12-------12-------14-12-------|
Db|-------------------------------|
Ab|-------------------------------|
Eb|-------------------------------|

eb|----------------------|
Bb|-12-------12-10-------|
Gb|-------11-------12-11-|
Db|----------------------|
Ab|----------------------|
Eb|----------------------|

eb|----------------------------15----15-----|
Bb|----13-------13-12----------18b20-18b20~-|
Gb|-12-------12-------14-12-----------------|
Db|-----------------------------------------|
Ab|-----------------------------------------|
Eb|-----------------------------------------|


Ending to riff 9
eb|-------------------------|
Bb|-------------------------|
Gb|-------------------------|
Db|-------------------------|
Ab|-------5-----3-----6-----|
Eb|-3-333---333---333---333-|
    * ***   ***   ***   *** 
eb|---------------------------|
Bb|---------------------------|
Gb|---------------------------|
Db|---------------------------|
Ab|-------------------------2-|
Eb|-2-222-2-2-2-3-2-2-3-2-3-0-|
    * *** * * * * * * * * *

Play Riff 2   "Now the rider..."
Play Riff 3   "Fight on, grab on..."


Ending
eb|-----------------------------------|
Bb|-----------------------------------|
Gb|-----------------------------------|
Db|-----------------------------------|
Ab|-----------------------------------|
Eb|-0-000-000-00-6-3-2-222-222-00-3-2-|
    * *** *** ** * * * *** *** ** * * 
eb|-----------------------------------|
Bb|-----------------------------------|
Gb|-----------------------------------|
Db|-----------------------------------|
Ab|-----------------------------------|
Eb|-1-111-111-00-3-2-0-000-000-000-00-|
    * *** *** ** * * * *** *** *** **
eb|-----------------------------------|
Bb|-----------------------------------|
Gb|-----------------------------------|
Db|-----------------------------------|
Ab|-----------------------------------|
Eb|-0-000-000-00-6-3-2-222-222-00-3-2-|
    * *** *** ** * * * *** *** ** * * 
eb|------------------------------------------------|
Bb|------------------------------------------------|
Gb|------------------------------------------------|
Db|--------------------------------------10-----9-|
Ab|-----------------2---------2-----------8-----7-|
Eb|-1-111-111-0-3-2-0-0000...-0----10-9-8---0-0----|
    * *** *** * * * *               * * *   * * 


Ending Solo
eb|---------------15-17-19-15-17-19h20-19-17----------|
Bb|-------16-17-19---------------------------20p19p17-|
Gb|-----16--------------------------------------------|
Db|---17----------------------------------------------|
Ab|-19------------------------------------------------|
Eb|---------------------------------------------------|

eb|-20p19p17---------19p17p15---------17p15p13----------|
Bb|---------20p19p17--------19p17p15--------17p15p13-|
Gb|-----------------------------------------------------|
Db|-----------------------------------------------------|
Ab|-----------------------------------------------------|
Eb|-----------------------------------------------------|

eb|-15p13p12---------13p12p10---------------|
Bb|---------15p13p12--------13p12p10-13~~-|
Gb|------------------------------------a----|
Db|-----------------------------------------|
Ab|-----------------------------------------|
Eb|-----------------------------------------|

eb|-------------------------------------------------|
Bb|---------------6---9-6-9/12-9--------------------|
Gb|-----------7-----7------------10-7---------------|
Db|---9-6-9-6---9---------------------9-6-----------|
Ab|-7-------------------------------------8-5-------|
Eb|-------------------------------------------7-4~~-|
    * * * * * * * * * * * *  * *  * * *  * *  
           slight palm mutes

End Solo

-----------------------------------------------------------

3. THE PATH I CHOOSE
Tuning: Eb

Intro                              x2
eb|---------------------------------|
Bb|---------------------------------|
Gb|---------------------------------|
Db|---------------------------------|
Ab|---------------------------------|
Eb|-0-000-0-000-000-0-000-0-000-000-|
    * *** * *** *** * *** * *** ***
                   x2                x2
eb|-----------------|-----------------|
Bb|-----------------|-----------------|
Gb|-----------------|-----------------|
Db|-----------------|-----------------|
Ab|-7-777-7-777-777-|-5-555-5-555-555-|
Eb|-----------------|-----------------|
    * *** * *** ***   * *** * *** ***
                   x2                x2
eb|-----------------|-----------------|
Bb|-----------------|-----------------|
Gb|-----------------|-----------------|
Db|-----------------|-----------------|
Ab|-8-888-8-888-888-|-7-777-7-777-777-|
Eb|-----------------|-----------------|
    * *** * *** ***   * *** * *** ***  

eb|---------------------------------|
Bb|---------------------------------|
Gb|---------------------------------|
Db|---------------------------------|
Ab|-3-333-3-333-333-5-555-5-555-555-|
Eb|---------------------------------|
    * *** * *** *** * *** * *** *** 
eb|---------------------------------|
Bb|---------------------------------|
Gb|---------------------------------|
Db|---------------------------------|
Ab|-2-222-2-222-222-2-222-2-222-222-|
Eb|---------------------------------|
    * *** * *** *** * *** * *** *** 
eb|---------------------------------|
Bb|---------------------------------|
Gb|---------------------------------|
Db|---------------------------------|
Ab|-3-333-3-333-333-5-555-5-555-555-|
Eb|---------------------------------|
    * *** * *** *** * *** * *** *** 
eb|----------------------------------|
Bb|----------------------------------|
Gb|----------------------------------|
Db|----------------------------------|
Ab|-2-222-2-222-222-2-222-2-222------|
Eb|-----------------------------//\-|
    * *** * *** *** * *** * *** 


Riff 1
eb|----------------------------------------|
Bb|----------------------------------------|
Gb|----------------------------------------|
Db|---------7----7-----12--9-9------------|
Ab|-2-------5----5-7-8-10--7-7--2----2----|
Eb|-0----00----------------------0-00-0-00-|
         **        * *             **   **     
  "During the last rays..."
eb|---------------------------|
Bb|---------------------------|
Gb|---------------------------|
Db|---------------------------|
Ab|-3----3-----2----2---------|
Eb|-1-00-1--00-0-00-0-00-5320-|
      **    **   **   ** ****    


Riff 2
eb|---------------------------3---|
Bb|-----------------------------3-|
Gb|-------------------------------|
Db|-------------------------------|
Ab|--4----------4--5--------------|
Eb|--2----------2--3--------------|
   "Temptation befell me..."


Riff 3                                         x2
eb|---------------------------------------------|
Bb|---------------------------------------------|
Gb|---------------------------------------------|
Db|----------------------7---------10----101010-|
Ab|----------------------5----5555--8--0--8-8-8-|
Eb|-00000000000000000000------------------------|
    ********************      ****     *
                              "This is the path..."

Riff 4
eb|----------------------------------------------|
Bb|----------------------------------------------|
Gb|----------------------------------------------|
Db|------10-------------9------10-------9-7------|
Ab|-------8--------7-10---------8--7-10-----10-8-|
Eb|-0-000----0-000--------0-000------------------|
    * ***    * ***        * ***    

Riff 5
eb|-----------------------------------------------|
Bb|-----------------------------------------------|
Gb|-----------------------------------------------|
Db|-------2-----3-----2-----0-----2-----3-----2p0-|
Ab|-----------------------------------------------|
Eb|-0-000---0-0---0-0---0-0---0-0---0-0---0-0-----|
    * ***   * *   * *   * *   * *   * *   * *

eb|---------------------------------------------|
Bb|---------------------------------------------|
Gb|---------------------------------------------|
Db|-------0-----2-----3-----2-----0-------------|
Ab|-------------------------------------3-----2-|
Eb|-1-111---1-1---1-1---1-1---1-1---1-1---1-1---|
    * ***   * *   * *   * *   * *   * *   * *

Play Riff 4
Play Riff 5

Riff 6
Guitar 1
eb|---------------------------------------------|
Bb|---------------------------------------------|
Gb|---------------------------------------------|
Db|---------------------------------------------|
Ab|-9---11---12---12p11p9-7---9---10---10p9p7/-|
Eb|---9----9----9------------7---7----7---------|
      *  * *  * *            * * *  * *

Guitar 2
eb|----------------------------------------------|
Bb|----------------------------------------------|
Gb|-11--13--14--14p13p11-9---11---12---12p11p9/-|
Db|---11--11--11------------9----9----9----------|
Ab|----------------------------------------------|
Eb|----------------------------------------------|
       *   *   *            *    *    *
eb|-----------------------------------------|
Bb|-----------------------------------------|
Gb|-11--13--14--14p13p11-9---11---12---11/-|
Db|---11--11--11------------9----9----9-----|
Ab|-----------------------------------------|
Eb|-----------------------------------------|
       *   *   *            *    *    *


Riff 6a (Solo Rhythm)
eb|---------------------------------------------|
Bb|---------------------------------------------|
Gb|---------------------------------------------|
Db|---------------------------------------------|
Ab|-9---11---12---12p11p9-7---9---10---10p9p7/-|
Eb|---9----9----9------------7---7----7---------|
      *  * *  * *            * * *  * *

Solo
eb|---------------------------------------|
Bb|---------------------------------------|
Gb|---------------------------------------|
Db|---------------------------------------|
Ab|---------------------------------------|
Eb|---------------------------------------|

eb|---------------------------------------|
Bb|---------------------------------------|
Gb|---------------------------------------|
Db|---------------------------------------|
Ab|---------------------------------------|
Eb|---------------------------------------|

End Solo


Riff 7
Guitar 1
eb|---------------7p6-----|---------------6p5-----|
Bb|-----------7p6-----7p6-|-----------6p5-----6p5-|
Gb|-----------------------|-----------------------|
Db|---------8--(8)--------|---------7--(7)--------|
Ab|-6-666-6-6--(6)--------|-5-555-5-5--(5)--------|
Eb|-----------------------|-----------------------|
    * *** *                 * *** *

Guitar 2
eb|---------------------------------------|
Bb|---------------------------------------|
Gb|---------------------------------------|
Db|---------------------------------------|
Ab|---------------------------------------|
Eb|---------------------------------------|

Guitar 3
eb|---------------------------------------|
Bb|---------------------------------------|
Gb|---------------------------------------|
Db|---------------------------------------|
Ab|---------------------------------------|
Eb|---------------------------------------|


                          
Riff 8 (Solo Rhythm)
eb|-------------------------------|
Bb|-------------------------------|
Gb|-------------------------------|
Db|------8----8-8-------8--8-10-8-|
Ab|-6666-6--6-6-6--6666-6--6--8-6-|
Eb|-------------------------------|
    ****    *      ****    *  *     
eb|-----------------------------------|
Bb|-----------------------------------|
Gb|-----------------------------------|
Db|------7----7-7-------7-----7-7-5-7-|
Ab|-5555-5--5-5-5--5555-5--55-5-5-3-5-|
Eb|-----------------------------------|
    ****    *      ****    ** * * * * 

Riff 9 (Solo Rhythm)
eb|--------------------------------------|
Bb|--------------------------------------|
Gb|--------------------------------------|
Db|------8------8----8-------8------10-8-|
Ab|-6666-6-6666-6-66-6--6666-6-6666--8-6-|
Eb|--------------------------------------|
    ****   ****   **    ****   **** 
eb|---------------------------------------|
Bb|---------------------------------------|
Gb|---------------------------------------|
Db|------7------7----7-------7----7-7-5-7-|
Ab|-5555-5-5555-5-55-5--5555-5-55-5-5-3-5-|
Eb|---------------------------------------|
    ****   ****   **    ****   ** * * * *

Solo
eb|---------------------------------------|
Bb|---------------------------------------|
Gb|---------------------------------------|
Db|---------------------------------------|
Ab|---------------------------------------|
Eb|---------------------------------------|

eb|---------------------------------------|
Bb|---------------------------------------|
Gb|---------------------------------------|
Db|---------------------------------------|
Ab|---------------------------------------|
Eb|---------------------------------------|

eb|---------------------------------------|
Bb|---------------------------------------|
Gb|---------------------------------------|
Db|---------------------------------------|
Ab|---------------------------------------|
Eb|---------------------------------------|

eb|---------------------------------------|
Bb|---------------------------------------|
Gb|---------------------------------------|
Db|---------------------------------------|
Ab|---------------------------------------|
Eb|---------------------------------------|

End Solo



Riff 10
Guitar 1
eb|-----------------------|
Bb|-----------------------|
Gb|-----------------------|
Db|--8--------8---------8-|
Ab|--6--------6---------6-|
Eb|-----------------------|

Guitar 2
eb|-----11-10-----------------------|
Bb|------------11-12-11-------------|
Gb|---------------------11-10-------|
Db|-13------------------------13-12-|
Ab|---------------------------------|
Eb|---------------------------------|

Guitar 3
eb|------------------------|
Bb|------------------------|
Gb|----8-7-----------------|
Db|---------8-9-8----------|
Ab|-6--------------9-8-6-5-|
Eb|------------------------|


Riff 11
eb|----------------------------------------------|
Bb|----------------------------------------------|
Gb|------------------------------------------3-2-|
Db|-2-----------3--------2------------3--2-3-3-2-|
Ab|-0-0-0-3p2p0-1--/12--0--0-0-3p2p0-1----------|
Eb|----------------------------------------------|


Riff 12
eb|-----------------------------|
Bb|-----------------------------|
Gb|-----------------------------|
Db|-----------------------------|
Ab|-7---------------------------|
Eb|-5-5-555-555-555-555-555-555-|
      * *** *** *** *** *** ***
eb|------------------------|
Bb|------------------------|
Gb|------------------------|
Db|------------------------|
Ab|-8-7---------------10-8-|
Eb|-6-5-5-555-555-555--8-6-|
        * *** *** ***

Riff 12a
eb|-----------------------------|
Bb|-----------------------------|
Gb|-----------------------------|
Db|-----------------------------|
Ab|-7---------------------------|
Eb|-5-5-555-555-555-555-555-555-|
      * *** *** *** *** *** ***
   "Forced power..."
eb|---------------------------|
Bb|---------------------------|
Gb|---------------------------|
Db|---------------------------|
Ab|-8-7---------------10-8--8-|
Eb|-6-5-5-555-555-555--8-6--6-|
        * *** *** ***

Riff 13
eb|----------------------|
Bb|----------------------|
Gb|----------------------|
Db|--------3-2-------0-2-|
Ab|-2------3-2-------0-2-|
Eb|-0-0000------0000-----|
      ****      ****
eb|------------------------|
Bb|------------------------|
Gb|------------------------|
Db|------3-----------------|
Ab|------3--2-22-0-2-0-----|
Eb|-0000---------------3-3-|
    ****    * ** *   * * *
eb|----------------------|
Bb|----------------------|
Gb|----------------------|
Db|--------3-2-------0-2-|
Ab|-2------3-2-------0-2-|
Eb|-0-0000------0000-----|
      ****      ****
eb|-----------------------------|
Bb|-----------------------------|
Gb|-----------------------------|
Db|-----------------------------|
Ab|-----------------------------|
Eb|-0-0-000-000-000-000-000-000-|
    * * *** *** *** *** *** *** 

Play Riff 12a  "The chosen one..."

Riff 13a
eb|----------------------|
Bb|----------------------|
Gb|----------------------|
Db|--------3-2-------0-2-|
Ab|-2------3-2-------0-2-|
Eb|-0-0000------0000-----|
      ****      ****
eb|------------------------|
Bb|------------------------|
Gb|------------------------|
Db|------3-----------------|
Ab|------3--2-22-0-2-0-----|
Eb|-0000---------------3-3-|
    ****    * ** *   * * *

Riff 13b
eb|-------------------------|
Bb|-------------------------|
Gb|-------------------------|
Db|--------10-9---------7-9-|
Ab|-2-------8-7---------5-7-|
Eb|-0-0000------0-000-0-----|
      ****      * *** *
eb|-------------------------|
Bb|-------------------------|
Gb|-------------------------|
Db|------10-----------------|
Ab|-------8--2-22-0-2-0-----|
Eb|-0000----------------3-3-|
    ****     * ** *   * * *
eb|-------------------------|
Bb|-------------------------|
Gb|-------------------------|
Db|--------10-9---------7-9-|
Ab|-2-------8-7---------5-7-|
Eb|-0-0000------0-000-0-----|
      ****      * *** *
eb|-------------------------|
Bb|-------------------------|
Gb|-------------------------|
Db|------10-----------------|
Ab|-------8--2-22-0-2-0-----|
Eb|-0000----------------3-0-|
    ****     * ** *   * * *

Play Riff 2   "Temptation befell me..."
Play Riff 3   "This is the path..."

Riff 14           x2
eb|----------------|--------------------------------|
Bb|----------------|--------------------------------|
Gb|----------------|--------------------------------|
Db|-4--4--4--2-4-5-|-7--7--7--7-5-7--4--4--4--2-4-5-|
Ab|-2--2--2--0-2-3-|-5--5--5--5-3-5--2--2--2--0-2-3-|
Eb|----------------|--------------------------------|


Riff 14a                   x2
eb|-------------------------|
Bb|-------------------------|
Gb|-------------------------|
Db|-4-----4-----4-----2-4-5-|
Ab|-2-2-2-2-2-2-2-2-2-0-2-3-|
Eb|-------------------------|
      * *   * *   * *        
eb|--------------------------------------------------|
Bb|--------------------------------------------------|
Gb|--------------------------------------------------|
Db|-7-----7-----7-----7-5-7--4-----4-----4-----2-4-5-|
Ab|-5-5-5-5-5-5-5-5-5-5-3-5--2-2-2-2-2-2-2-2-2-0-2-3-|
Eb|--------------------------------------------------|
      * *   * *   * *          * *   * *   * *

[song fades out]

-------------------------------------------------------------

4. BEFORE THE VISION
Tuning: Eb

Entire song is played with 6 string acoustics.

Riff 1
Guitar 1
eb|---------0---------------0-------|
Bb|-1---------1---1-0---------0---0-|
Gb|---2---------2-----2---------2---| 
Db|-----2---------------2-----------|  
Ab|-0-----0-------0-0-----0-------0-| 
Eb|---------------------------------|

eb|---------0---------------0-----|
Bb|-1---------1---1-0---------0---|
Gb|---2---------2-----2---------2-| 
Db|-----2---------------2---------|  
Ab|-0-----0-------0-0-----0-------| 
Eb|-------------------------------|

Guitar 2
eb|-------------------------------------8-----|
Bb|------8---------------------------------10-|
Gb|-9------9----9-7------------------9--------|
Db|-------------------10-9---10-7-------------|
Ab|-------------------------------------------|
Eb|-------------------------------------------|


Riff 2                                           
Guitar 1
eb|---------3---------------3-------|
Bb|-4---------4---4-3---------3---3-|
Gb|---5---------5-----5---------5---|
Db|-----5---------------5-----------|
Ab|-3-----3-------3-3-----3-------3-|
Eb|---------------------------------|

eb|---------3---------------3-----|
Bb|-4---------4---4-3---------3---|
Gb|---5---------5-----5---------5-|
Db|-----5---------------5---------|
Ab|-3-----3-------3-3-----3-------|
Eb|-------------------------------|

Guitar 2
eb|----------------------------------------11--8-|
Bb|-------------------------------------8--------|
Gb|------------------------------7-8-------------|
Db|-------9-------9-10----9-7--------------------|
Ab|-10------10-----------------------------------|
Eb|----------------------------------------------|


Repeat Riff 1
Repeat Riff 2

Riff 3
Guitar 1                           x4
eb|---------0---------------2-------|
Bb|-0---------0-----0---------0-----|
Gb|---0---------0-----0---------0---|
Db|-----2---------2-----2---------2-|
Ab|-------2---------------2---------|
Eb|-0-------------0-0-------------0-|
                                  
Guitar 2                       x2 
eb|-----------------------------|
Bb|--7----7h8-------8--10-------|
Gb|-----------9------------7--9-|
Db|-----------------------------|
Ab|-----------------------------|
Eb|-----------------------------|
   "Go now..."


Riff 4 (Play 2x)
Guitar 1           x3
eb|---------0-------|---------2-------|
Bb|-0---------0-----|-0---------0-----|
Gb|---0---------0---|---0---------0---|
Db|-----2---------2-|-----2---------2-|
Ab|-------2---------|-------2---------|
Eb|-0-------------0-|-0-------------0-|

Guitar 2                 x2
eb|---------------------7-|
Bb|-----12--7-------------|
Gb|--12--------7-----7----|
Db|---------------7-------|
Ab|-----------------------|
Eb|-----------------------|
     h. h.  h. h. h. h. h.
  
   "Visions will..."


Repeat riff 3   "Be strong..."
Repeat riff 4   "Visions will..."


Riff 4a (Ending of song)

Guitar 1           x2
eb|---------0-------|--2--|
Bb|-0---------0-----|--0--|
Gb|---0---------0---|--0--|
Db|-----2---------2-|--2--|
Ab|-------2---------|--2--|
Eb|-0-------------0-|--0--|

Guitar 2
eb|---------------------5-|
Bb|-----12--7-------------|
Gb|--12--------7-----7----|
Db|---------------7-------|
Ab|-----------------------|
Eb|-----------------------|
     h. h.  h. h. h. h. h.

---------------------------------------------

5. MYSTICAL END
Tuning: Eb

Riff 1
Guitar 1                  x2
eb|------------------------|
Bb|------------------------|
Gb|------------------------|
Db|-7-7-8-7-10-8-7--7-8----|
Ab|---------------------10-|
Eb|------------------------|

eb|------------------------------|
Bb|------------------------------|
Gb|------------------------------|
Db|-7-7-8-7-10-8-7--7-8-7-10-8-7-|
Ab|------------------------------|
Eb|------------------------------|

eb|----------------------|
Bb|----------------------|
Gb|----------------------|
Db|-7-8-7-10-8-7--7-8----|
Ab|-------------------10-|
Eb|----------------------|

Guitar 2
eb|--------------------------------------------|
Bb|--------------------------------------------|
Gb|--------------------------------------------|
Db|-7---------5----------3---------5---------7-|
Ab|-5---------3----------1---------3---------5-|
Eb|--------------------------------------------|

Guitar 3
eb|--------------------------------------------|
Bb|--------------------------------------------|
Gb|--------------------------------------------|
Db|-4---------2------------------------------4-|
Ab|----------------------5---------5-----------|
Eb|--------------------------------------------|


Riff 2
eb|----------------------|
Bb|----------------------|
Gb|----------------------|
Db|-7----9-10--7----9-10-|
Ab|-5----7--8--5----7--8-|
Eb|----------------------|
   "On the plains..."
eb|------------------------------|
Bb|------------------------------|
Gb|------------------------------|
Db|-5----5/7-7----75-5----5/7-7-|
Ab|-3----3/5-5----53-3----3/5-5-|
Eb|------------------------------|
   "...heard..."

Final time:
eb|-------------------------------------|
Bb|-------------------------------------|
Gb|-------------------------------------|
Db|-5----5/7-7----75-5----5/7-7--------|
Ab|-3----3/5-5----53-3----3/5-5----5p0-|
Eb|-------------------------------------|


Riff 3 (Guitar 2 plays notes in () )
eb|-----------------------------------|
Bb|-----------------------------------|
Gb|-----------------------------------|
Db|-7-----7-----7-----7-----7----7----|
Ab|-5-555-5-555-5-555-5-555-5-55-5-55-|
Eb|-----------------------------------|
      ***   ***   ***   ***   **   ** 
    "Way up in the sky..."
eb|-----------------------------------|
Bb|-----------------------------------|
Gb|---------------(4-2-4-5-4-2-4p2--)-|
Db|-5-----5-----5--5-4-5-7-5-4-5p4-4)-|
Ab|-3-333-3-333-3------------------5--|
Eb|-----------------------------------|
      ***   ***
    "...the sun is burning bright..."
eb|-----------------------------------|
Bb|-----------------------------------|
Gb|-----------------------------------|
Db|-7-----7-----7-----7-----7----7----|
Ab|-5-555-5-555-5-555-5-555-5-55-5-55-|
Eb|-----------------------------------|
      ***   ***   ***   ***   **   **
    "All the natives..." 
eb|----------------------------------|
Bb|----------------------------------|
Gb|----------------------------------|
Db|-5-----5-----5--------------------|
Ab|-3-333-3-333-3-33-6-6--666-6-6666-|
Eb|----------------------------------|
      ***   ***   ** * *  *** * ****
    "...screaming to be free..."


Play Riff 2


Riff 4                        Last time
eb|---------------------------|-----|
Bb|---------------------------|-----|
Gb|---------------------------|-----|
Db|-7--7---------5--5---------|--7--|
Ab|-5--5--77-8-7-3--3--55-6-5-|--5--|
Eb|---------------------------|-----|
          ** * *       ** * * 
   "As the moon fades away..."   
       
                              
Riff 5
Guitar 1
eb|---------------------------------|
Bb|---------------------------------|
Gb|---------------------------------|
Db|---------------------------------|
Ab|-5-555-5-555-5-555-5-555-6-666---|
Eb|-------------------------------8-|
    * *** * *** * *** * *** * *** * 
eb|------------------------------------|
Bb|------------------------------------|
Gb|------------------------------------|
Db|------------------------------------|
Ab|-5-555-5-555-5-55-6-5-6-8-6-5h6-5---|
Eb|----------------------------------6-|
    * *** * *** * **

Guitar 2 (Comes in the 2nd time)
eb|------------------|
Bb|------------------|
Gb|------------------|
Db|-7--------8----7--|
Ab|-5--------6----5--|
Eb|------------------|



Riff 6 (Solo Rhythm)
eb|---------------------------------|
Bb|---------------------------------|
Gb|---------------------------------|
Db|-7-----7-----7-----7-----8-------|
Ab|-5-555-5-555-5-555-5-555-6-666-3-|
Eb|---------------------------------|
      ***   ***   ***   ***   *** *
eb|------------------------------------|
Bb|------------------------------------|
Gb|------------------------------------|
Db|-7-----7-----7----------------------|
Ab|-5-555-5-555-5-55-6-5-6-8-6-5h6-5---|
Eb|----------------------------------6-|
      ***   ***   **  

Riff 7 (Solo Rhythm)                                  Last time
eb|---------------------------------------------------|-----|
Bb|---------------------------------------------------|-----|
Gb|---------------------------------------------------|-----|
Db|-7----7-8-8-8-7----7-8-8-8-7----7-8-8-8-7----10--8-|--7--|
Ab|-5----5-6-6-6-5----5-6-6-6-5----5-6-6-6-5-----8--6-|--5--|
Eb|---------------------------------------------------|-----|


Solo
eb|---------------------------------------|
Bb|---------------------------------------|
Gb|---------------------------------------|
Db|---------------------------------------|
Ab|---------------------------------------|
Eb|---------------------------------------|

eb|---------------------------------------|
Bb|---------------------------------------|
Gb|---------------------------------------|
Db|---------------------------------------|
Ab|---------------------------------------|
Eb|---------------------------------------|

End Solo


Riff 8
Guitar 1
eb|-----------------------------|
Bb|-----------------------------|
Gb|-----------------------------|
Db|-----4/5-5/7/8-54-54-5/7-|
Ab|-3/5-------------------------|
Eb|-----------------------------|

eb|----------------------------|
Bb|----------------------------|
Gb|----------------------------|
Db|-----4/5-5/7/8--54-5/7----|
Ab|-3/5---------------------5-|
Eb|----------------------------|

Guitar 2 (After two reptitions)
eb|---------------------------------|
Bb|---------------------------------|
Gb|---------------------------------|
Db|-----7/8-8/10/12--87-87-8/10-|
Ab|-7/9-----------------------------|
Eb|---------------------------------|

eb|-------------------------------|
Bb|-------------------------------|
Gb|-------------------------------|
Db|-----7/8-8/10/12--87-8/10----|
Ab|-7/9------------------------9-|
Eb|-------------------------------|

Guitar 3 (Last time)
eb|-------------------------------------|
Bb|-------------------------------------|
Gb|-------------------------------------|
Db|-7--------8-8-8-7--------------------|
Ab|-5--------

ĂŽnscrie-te la newsletter


Like us on Facebook