Number Of The Beast Solo Bass Tab - Iced Earth




This is the middle section of Number of the Beast
This can be seen as a bass/guitar deul this is totally perfect.

-----------------------------------------------------------------------------|
-----------------------------------------------------------------------------|
-1--1-1-1--1-1-1-1--1-1-1-1--1-1-1---------------------------------------0-1-|
-------------------------------------0-1--1-1-1--1-1-1-1--1-1-1-1--1-1-1-----|


-----------------------------------------------------------------------------|
-----------------------------------------------------------------------------|
-1-1-1--1-1-1-1--1-1-1-1--1-1-1---------------------------------------0-1--1-|
---------------------------------0-1--1-1-1--1-1-1-1--1-1-1-1--1-1-1---------|

----------------------------------------------------------------------------

-----------------------------------------------------------------------------|
-1-1--1-1-1-1--1-1-1-1--1-1-1---------------------------------------0-1--1-1-|
-------------------------------0-1--1-1-1--1-1-1-1--1-1-1-1--1-1-1-----------|

-----------------------------------------------------------------------------|
--------------------------------------------------------------------7-7-7--5-|
-1--1-1-1-1--1-1-1-1--1-1-1--------------------------------------------------|
-----------------------------0-1--1-1-1--1-1-1-1--1-1-1-1--1-1-1-------------|

-----7-----5-------------------------------.----5---3--------------------------|
---7-----7-----7---5--3--7--3--2-3---5-5-5--3--5---5---5--3--1--5--1-------5-5-|
---------------------------------------------------------------------3-5-------|
-------------------------------------------------------------------------------|

----------------------------------------------------------------------------|
-5--3---3-3-3--3-3-3-3--3-3-3-3--3-3-3--5--5-5-5-5--5-5-5--7--7-7-7--10-10--|
----------------------------------------------------------------------------|
----------------------------------------------------------------------------|

--------------9---------------------4--------------------5------------------|
--------7--9-----9--7---------2--4-----4--2--------3--5-----5--3-------7----|
--7--9------------------0--2-----------------3--5-----------------5--7------|
----------------------------------------------------------------------------|


-------9------------7--9--7-----------------4-----------------3--5--3-------|
----9------------7-----------9--------2--4-----4--2--------3-----------5----|
-7---------7--9-----------------0--2-----------------3--5-------------------|
----------------------------------------------------------------------------|

-------7---------9-------------7--9--7-----------------4---------------3--5-|
-5--7------7--9-------------7-----------9--------2--4-----4--2-------3------|
----------------------7--9-----------------0--2-----------------3--5--------|
----------------------------------------------------------------------------|

--3-------------7--------9---------------7---------------------4-------------|
-----5----5--7------7--9-----------7--9-----9--7---------2--4-----4--2-------|
------------------------------7--9-----------------0--2-----------------3--5-|
-----------------------------------------------------------------------------|

--------3---------------7---------9---/19---19-19-19-19--------10---10-10-10-|
--3--5-----5--3------7----------9-----------------------19-17----------------|
------------------5----------7-----------------------------------------------|
-----------------------------------------------------------------------------|

-10---10-10--12--12-12-12-12---12-12--15--15---17--17---/19---19-19-19-19---|
----------------------------------------------------------------------------|
----------------------------------------------------------------------------|
----------------------------------------------------------------------------|

-10---10-10-10-10---10--10---12---12-12-12-12---12---12---15--15----17---17--|
-----------------------------------------------------------------------------|
-----------------------------------------------------------------------------|
-----------------------------------------------------------------------------|
ĂŽnscrie-te la newsletter


Join the ranks ! LIKE us on Facebook