Ripper Solo Tab - Iced Earth




Iced Earth - The Ripper
Tabbed By: Nick M.
E-mail: Superfrek89@hotmail.com

Tuning: Half Step Down (Eb Ab Db Gb Bb Eb)

I noticed there was no tabs on this song so I tab'd the solo out, I am too lazy to figure
the rest out, but if I get requests I might tab the rest out 
Peace for now, Keep Practicing  


Solo
eb|----------------------------------------------|
Bb|-b15r15--13-12---13-----13-12-------12-13-15--|
Gb|------------------------------13-14-----------|
Db|--------------------14------------------------|
Ab|----------------------------------------------|
Eb|----------------------------------------------|

eb|----------------------------------------------|
Bb|-b15r15--13-12---13-----13-12----12-------12--|
Gb|------------------------------14----13-14-----|
Db|---------------------14-----------------------|
Ab|----------------------------------------------|
Eb|----------------------------------------------|

eb|----------------------------------------------|
Bb|-b12r12-10-12-----10---13-12-10-12--9-10-12---|
Gb|--------------12------------------------------|
Db|----------------------------------------------|
Ab|----------------------------------------------|
Eb|----------------------------------------------|

eb|-------------------------------------------------------|
Bb|-b12r12-10-12------------13-12-13-12--12-13----10~~~---|
Gb|---------------11-12-9----------------------13---------|
Db|-------------------------------------------------------|
Ab|-------------------------------------------------------|
Eb|-------------------------------------------------------|


b= Bend
r= Release 
~~~= Vibrato
ĂŽnscrie-te la newsletter


Join the ranks ! LIKE us on Facebook