Ten Thousand Strong Tab - Iced Earth






                              Ten Thousand Strong


                                                                      Iced Earth
Guitar 1

         PM PM PM PM PM PM    PM PM PM PM PM PM
      E  S  S  S  S  S  S  E  S  S  S  S  S  S
D#||--------------------------------------------|
A#||--------------------------------------------|
F#||--------------------------------------------|
C#||--------------------------------------------|
G#||--2--------------------2--------------------|
D#||--0--0--0--0--0--0--0--0--0--0--0--0--0--0--|


     PM PM PM PM PM PM                      PM PM PM PM    PM PM PM PM PM PM
  E  S  S  S  S  S  S  E  E  E  E     E  E  S  S  S  S  E  S  S  S  S  S  S
-----------------------------------|----------------------------------------|
-----------------------------------|----------------------------------------|
-----------------------------------|----------------------------------------|
-----------------------------------|----------------------------------------|
--2--------------------2--4-----5--|--L--4--------------2-------------------|
--0--0--0--0--0--0--0--0--2--x--3--|--L--2--0--0--0--0--0--0--0--0--0--0--0-|


     PM PM PM PM PM PM                      PM PM PM PM    PM PM PM PM PM PM
  E  S  S  S  S  S  S  E  E  E  E     E  E  S  S  S  S  E  S  S  S  S  SS
-----------------------------------|----------------------------------------|
-----------------------------------|----------------------------------------|
-----------------------------------|----------------------------------------|
--------------------------------5--|--L--4----------------------------------|
--2--------------------2--4-----3--|--L--2--------------2-------------------|
--0--0--0--0--0--0--0--0--2--x-----|--------0--0--0--0--0--0--0--0--0--0--0-|


     PM PM PM PM PM PM                     PM PM PM PM PM PM
  E  S  S  S  S  S  S  E  E  E  E     Q    E  S  S  E  E  E  E
-----------------------------------|----------------------------|
-----------------------------------|----------------------------|
-----------------------------------|----------------------------|
-----------------------------------|----------------------------|
--2--------------------2--4-----5--|--L----5--5--5--5--7--5--3--|
--0--0--0--0--0--0--0--0--2--x-----|----------------------------|


       PM PM PM PM PM PM PM          PM PM PM PM    PM PM PM PM PM PM
  Q    E  S  S  E  E  E  E     E  E  S  S  S  S  E  S  S  S  S  S  S
----------------------------|-----------------------------------------|
----------------------------|-----------------------------------------|
----------------------------|-----------------------------------------|
----------------------------|--5--4-----------------------------------|
--L----3--3--3--3--2--------|--3--2--------------2--------------------|
----------------------3--0--|--------0--0--0--0--0--0--0--0--0--0--0--|


     PM PM PM PM PM PM                      PM PM PM PM    PM PM PM PM PM PM
  E  S  S  S  S  S  S  E  E  E  E     E  E  S  S  S  S  E  S  S  S  S  SS
-----------------------------------|----------------------------------------|
-----------------------------------|----------------------------------------|
-----------------------------------|----------------------------------------|
-----------------------------------|----------------------------------------|
--2--------------------2--4-----5--|--L--4--------------2-------------------|
--0--0--0--0--0--0--0--0--2--x--3--|--L--2--0--0--0--0--0--0--0--0--0--0--0-|


     PM PM PM PM PM PM                      PM PM PM PM    PM PM PM PM PM PM
  E  S  S  S  S  S  S  E  E  E  E     E  E  S  S  S  S  E  S  S  S  S  SS
-----------------------------------|----------------------------------------|
-----------------------------------|----------------------------------------|
-----------------------------------|----------------------------------------|
--------------------------------5--|--L--4----------------------------------|
--2--------------------2--4-----3--|--L--2--------------2-------------------|
--0--0--0--0--0--0--0--0--2--x-----|--------0--0--0--0--0--0--0--0--0--0--0-|


     PM PM PM PM PM PM                     PM PM PM PM PM PM
  E  S  S  S  S  S  S  E  E  E  E     Q    E  S  S  E  E  E  E
-----------------------------------|----------------------------|
-----------------------------------|----------------------------|
-----------------------------------|----------------------------|
-----------------------------------|----------------------------|
--2--------------------2--4-----5--|--L----5--5--5--5--7--5--3--|
--0--0--0--0--0--0--0--0--2--x-----|----------------------------|


       PM PM PM PM PM PM PM          PM PM PM PM    PM PM PM PM PM PM
  Q    E  S  S  E  E  E  E     E  E  S  S  S  S  E  S  S  S  S  S  S
----------------------------|-----------------------------------------|
----------------------------|-----------------------------------------|
----------------------------|-----------------------------------------|
----------------------------|--5--4-----------------------------------|
--L----3--3--3--3--2--------|--3--2--------------2--------------------|
----------------------3--0--|--------0--0--0--0--0--0--0--0--0--0--0--|


     PM PM PM PM PM PM                      PM PM PM PM    PM PM PM PM PM PM
  E  S  S  S  S  S  S  E  E  E  E     E  E  S  S  S  S  E  S  S  S  S  SS
-----------------------------------|----------------------------------------|
-----------------------------------|----------------------------------------|
-----------------------------------|----------------------------------------|
-----------------------------------|----------------------------------------|
--2--------------------2--4-----5--|--L--4--------------2-------------------|
--0--0--0--0--0--0--0--0--2--x--3--|--L--2--0--0--0--0--0--0--0--0--0--0--0-|


     PM PM PM PM PM PM                      PM PM PM PM    PM PM PM PM PM PM
  E  S  S  S  S  S  S  E  E  E  E     E  E  S  S  S  S  E  S  S  S  S  SS
-----------------------------------|----------------------------------------|
-----------------------------------|----------------------------------------|
-----------------------------------|----------------------------------------|
--------------------------------5--|--L--4----------------------------------|
--2--------------------2--4-----3--|--L--2--------------2-------------------|
--0--0--0--0--0--0--0--0--2--x-----|--------0--0--0--0--0--0--0--0--0--0--0-|


     PM PM PM PM PM PM                     PM PM PM PM PM PM
  E  S  S  S  S  S  S  E  E  E  E     Q    E  S  S  E  E  E  E
-----------------------------------|----------------------------|
-----------------------------------|----------------------------|
-----------------------------------|----------------------------|
-----------------------------------|----------------------------|
--2--------------------2--4-----5--|--L----5--5--5--5--7--5--3--|
--0--0--0--0--0--0--0--0--2--x-----|----------------------------|


       PM PM PM PM PM PM PM          PM PM PM PM    PM PM PM PM PM PM
  Q    E  S  S  E  E  E  E     E  E  S  S  S  S  E  S  S  S  S  S  S
----------------------------|-----------------------------------------|
----------------------------|-----------------------------------------|
----------------------------|-----------------------------------------|
----------------------------|--5--4-----------------------------------|
--L----3--3--3--3--2--------|--3--2--------------2--------------------|
----------------------3--0--|--------0--0--0--0--0--0--0--0--0--0--0--|


     PM PM PM PM PM PM
  E  S  S  S  S  S  S  E  E  E  E     W
-----------------------------------|-------------------|
-----------------------------------|-------------------|
-----------------------------------|-------------------|
--------------------------------9--|--L----------------|
--2--------------------2--4-----7--|--L----------------|
--0--0--0--0--0--0--0--0--2--x-----|-------------------|


  H        E  E   E   E     W                   H        E  E   E   E
-------------------------|-------------------|-------------------------|
-------------------------|-------------------|-------------------------|
-------------------------|-------------------|-------------------------|
--L--------9--7--(x)--5--|--L----------------|--L--------5--9--(x)--7--|
--L--------7--5--(x)--3--|--L----------------|--L--------3--7--(x)--5--|
-------------------------|-------------------|-------------------------|


  W                   H        E  E   E   E     W
-------------------|-------------------------|-------------------|
-------------------|-------------------------|-------------------|
-------------------|-------------------------|-------------------|
--L----------------|--L--------7--5--(x)--4--|--L----------------|
--L----------------|--L--------5--3--(x)--2--|--L----------------|
-------------------|-------------------------|-------------------|


  H        H           W                   H        E  E   E   E
--------------------|-------------------|-------------------------|
--------------------|-------------------|-------------------------|
--------------------|-------------------|-------------------------|
--5--------7--------|--9----------------|--L--------9--7--(x)--5--|
--3--------5--------|--7----------------|--L--------7--5--(x)--3--|
--------------------|-------------------|-------------------------|


  W                   H        E  E   E   E     W
-------------------|-------------------------|-------------------|
-------------------|-------------------------|-------------------|
-------------------|-------------------------|-------------------|
--L----------------|--L--------5--9--(x)--7--|--L----------------|
--L----------------|--L--------3--7--(x)--5--|--L----------------|
-------------------|-------------------------|-------------------|


  H        E  E   E   E     W                   H        H
-------------------------|-------------------|--------------------|
-------------------------|-------------------|--------------------|
-------------------------|-------------------|--------------------|
--L--------7--5--(x)--4--|--L----------------|--5--------7--------|
--L--------5--3--(x)--2--|--L----------------|--3--------5--------|
-------------------------|-------------------|--------------------|


     PM PM PM PM PM PM    PM PM PM PM PM PM
  E  S  S  S  S  S  S  E  S  S  S  S  S  S
--------------------------------------------|
--------------------------------------------|
--------------------------------------------|
--------------------------------------------|
--2--------------------2--------------------|
--0--0--0--0--0--0--0--0--0--0--0--0--0--0--|


     PM PM PM PM PM PM                      PM PM PM PM    PM PM PM PM PM PM
  E  S  S  S  S  S  S  E  E  E  E     E  E  S  S  S  S  E  S  S  S  S  SS
-----------------------------------|----------------------------------------|
-----------------------------------|----------------------------------------|
-----------------------------------|----------------------------------------|
-----------------------------------|----------------------------------------|
--2--------------------2--4-----5--|--L--4--------------2-------------------|
--0--0--0--0--0--0--0--0--2--x--3--|--L--2--0--0--0--0--0--0--0--0--0--0--0-|


     PM PM PM PM PM PM                      PM PM PM PM    PM PM PM PM PM PM
  E  S  S  S  S  S  S  E  E  E  E     E  E  S  S  S  S  E  S  S  S  S  SS
-----------------------------------|----------------------------------------|
-----------------------------------|----------------------------------------|
-----------------------------------|----------------------------------------|
--------------------------------5--|--L--4----------------------------------|
--2--------------------2--4-----3--|--L--2--------------2-------------------|
--0--0--0--0--0--0--0--0--2--x-----|--------0--0--0--0--0--0--0--0--0--0--0-|


     PM PM PM PM PM PM                     PM PM PM PM PM PM
  E  S  S  S  S  S  S  E  E  E  E     Q    E  S  S  E  E  E  E
-----------------------------------|----------------------------|
-----------------------------------|----------------------------|
-----------------------------------|----------------------------|
-----------------------------------|----------------------------|
--2--------------------2--4-----5--|--L----5--5--5--5--7--5--3--|
--0--0--0--0--0--0--0--0--2--x-----|----------------------------|


       PM PM PM PM PM PM PM          PM PM PM PM    PM PM PM PM PM PM
  Q    E  S  S  E  E  E  E     E  E  S  S  S  S  E  S  S  S  S  S  S
----------------------------|-----------------------------------------|
----------------------------|-----------------------------------------|
----------------------------|-----------------------------------------|
----------------------------|--5--4-----------------------------------|
--L----3--3--3--3--2--------|--3--2--------------2--------------------|
----------------------3--0--|--------0--0--0--0--0--0--0--0--0--0--0--|


     PM PM PM PM PM PM                      PM PM PM PM    PM PM PM PM PM PM
  E  S  S  S  S  S  S  E  E  E  E     E  E  S  S  S  S  E  S  S  S  S  SS
-----------------------------------|----------------------------------------|
-----------------------------------|----------------------------------------|
-----------------------------------|----------------------------------------|
-----------------------------------|----------------------------------------|
--2--------------------2--4-----5--|--L--4--------------2-------------------|
--0--0--0--0--0--0--0--0--2--x--3--|--L--2--0--0--0--0--0--0--0--0--0--0--0-|


     PM PM PM PM PM PM                      PM PM PM PM    PM PM PM PM PM PM
  E  S  S  S  S  S  S  E  E  E  E     E  E  S  S  S  S  E  S  S  S  S  SS
-----------------------------------|----------------------------------------|
-----------------------------------|----------------------------------------|
-----------------------------------|----------------------------------------|
--------------------------------5--|--L--4----------------------------------|
--2--------------------2--4-----3--|--L--2--------------2-------------------|
--0--0--0--0--0--0--0--0--2--x-----|--------0--0--0--0--0--0--0--0--0--0--0-|


     PM PM PM PM PM PM                     PM PM PM PM PM PM
  E  S  S  S  S  S  S  E  E  E  E     Q    E  S  S  E  E  E  E
-----------------------------------|----------------------------|
-----------------------------------|----------------------------|
-----------------------------------|----------------------------|
-----------------------------------|----------------------------|
--2--------------------2--4-----5--|--L----5--5--5--5--7--5--3--|
--0--0--0--0--0--0--0--0--2--x-----|----------------------------|


       PM PM PM PM PM PM PM          PM PM PM PM    PM PM PM PM PM PM
  Q    E  S  S  E  E  E  E     E  E  S  S  S  S  E  S  S  S  S  S  S
----------------------------|-----------------------------------------|
----------------------------|-----------------------------------------|
----------------------------|-----------------------------------------|
----------------------------|--5--4-----------------------------------|
--L----3--3--3--3--2--------|--3--2--------------2--------------------|
----------------------3--0--|--------0--0--0--0--0--0--0--0--0--0--0--|


     PM PM PM PM PM PM
  E  S  S  S  S  S  S  E  E  E  E     W
-----------------------------------|-------------------|
-----------------------------------|-------------------|
-----------------------------------|-------------------|
--------------------------------9--|--L----------------|
--2--------------------2--4-----7--|--L----------------|
--0--0--0--0--0--0--0--0--2--x-----|-------------------|


  H        E  E   E   E     W                   H        E  E   E   E
-------------------------|-------------------|-------------------------|
-------------------------|-------------------|-------------------------|
-------------------------|-------------------|-------------------------|
--L--------9--7--(x)--5--|--L----------------|--L--------5--9--(x)--7--|
--L--------7--5--(x)--3--|--L----------------|--L--------3--7--(x)--5--|
-------------------------|-------------------|-------------------------|


  W                   H        E  E   E   E     W
-------------------|-------------------------|-------------------|
-------------------|-------------------------|-------------------|
-------------------|-------------------------|-------------------|
--L----------------|--L--------7--5--(x)--4--|--L----------------|
--L----------------|--L--------5--3--(x)--2--|--L----------------|
-------------------|-------------------------|-------------------|


  H        H           W                   H        E  E   E   E
--------------------|-------------------|-------------------------|
--------------------|-------------------|-------------------------|
--------------------|-------------------|-------------------------|
--5--------7--------|--9----------------|--L--------9--7--(x)--5--|
--3--------5--------|--7----------------|--L--------7--5--(x)--3--|
--------------------|-------------------|-------------------------|


  W                   H        E  E   E   E     W
-------------------|-------------------------|-------------------|
-------------------|-------------------------|-------------------|
-------------------|-------------------------|-------------------|
--L----------------|--L--------5--9--(x)--7--|--L----------------|
--L----------------|--L--------3--7--(x)--5--|--L----------------|
-------------------|-------------------------|-------------------|


  H        E  E   E   E     W                   H        H
-------------------------|-------------------|--------------------|
-------------------------|-------------------|--------------------|
-------------------------|-------------------|--------------------|
--L--------7--5--(x)--4--|--L----------------|--5--------7--------|
--L--------5--3--(x)--2--|--L----------------|--3--------5--------|
-------------------------|-------------------|--------------------|


     PM PM PM PM      PM PM PM PM                 PM PM PM  PM  PM PM
  E  S  S  S  S   E   S  S  S  S Q        Q.      S  S  E   E   E  E
---------------------------------------|------------------------------|
---------------------------------------|------------------------------|
---------------------------------------|------------------------------|
---------------------------------------|------------------------------|
--7--7--7--7--7--10--10-10-10-10-7~----|--L------10-10-10--12--10--9--|
---------------------------------------|------------------------------|


     PM PM PM PM    PM PM PM PM           PM PM    PM PM PM PM    PM
  E  S  S  S  S  E  S  S  S  S  E   E     E  E  E  S  S  E  E  E  E
---------------------------------------|-----------------------------|
---------------------------------------|-----------------------------|
---------------------------------------|-----------------------------|
-----------------7---------------------|--------5--------------7-----|
--5--5--5--5--5-----5--5--5--5--5s--3--|--3--3-----3--3--5--5-----5--|
---------------------------------------|-----------------------------|


     PM PM PM PM      PM PM PM PM                 PM PM PM  PM  PM PM
  E  S  S  S  S   E   S  S  S  S Q        Q.      S  S  E   E   E  E
---------------------------------------|------------------------------|
---------------------------------------|------------------------------|
---------------------------------------|------------------------------|
---------------------------------------|------------------------------|
--7--7--7--7--7--10--10-10-10-10-7~----|--L------10-10-10--12--10--9--|
---------------------------------------|------------------------------|


     PM PM PM PM    PM PM PM PM           PM PM    PM PM PM PM    PM
  E  S  S  S  S  E  S  S  S  S  E   E     E  E  E  S  S  E  E  E  E
---------------------------------------|-----------------------------|
---------------------------------------|-----------------------------|
---------------------------------------|-----------------------------|
-----------------7---------------------|--------5--------------7-----|
--5--5--5--5--5-----5--5--5--5--5s--3--|--3--3-----3--3--5--5-----5--|
---------------------------------------|-----------------------------|


     PM PM PM PM      PM PM PM PM                 PM PM PM  PM  PM PM
  E  S  S  S  S   E   S  S  S  S Q        Q.      S  S  E   E   E  E
---------------------------------------|------------------------------|
---------------------------------------|------------------------------|
---------------------------------------|------------------------------|
---------------------------------------|------------------------------|
--7--7--7--7--7--10--10-10-10-10-7~----|--L------10-10-10--12--10--9--|
---------------------------------------|------------------------------|


     PM PM PM PM    PM PM PM PM           PM PM    PM PM PM PM    PM
  E  S  S  S  S  E  S  S  S  S  E   E     E  E  E  S  S  E  E  E  E
---------------------------------------|-----------------------------|
---------------------------------------|-----------------------------|
---------------------------------------|-----------------------------|
-----------------7---------------------|--------5--------------7-----|
--5--5--5--5--5-----5--5--5--5--5s--3--|--3--3-----3--3--5--5-----5--|
---------------------------------------|-----------------------------|


     PM PM PM PM      PM PM PM PM                 PM PM PM  PM  PM PM
  E  S  S  S  S   E   S  S  S  S Q        Q.      S  S  E   E   E  E
---------------------------------------|------------------------------|
---------------------------------------|------------------------------|
---------------------------------------|------------------------------|
---------------------------------------|------------------------------|
--7--7--7--7--7--10--10-10-10-10-7~----|--L------10-10-10--12--10--9--|
---------------------------------------|------------------------------|


     PM PM PM PM    PM PM PM PM           PM PM    PM PM PM PM    PM
  E  S  S  S  S  E  S  S  S  S  E   E     E  E  E  S  S  E  E  E  E
---------------------------------------|-----------------------------|
---------------------------------------|-----------------------------|
---------------------------------------|-----------------------------|
-----------------7---------------------|--------5--------------7-----|
--5--5--5--5--5-----5--5--5--5--5s--3--|--3--3-----3--3--5--5-----5--|
---------------------------------------|-----------------------------|


  W                   H        E  E   E   E     W
-------------------|-------------------------|-------------------|
-------------------|-------------------------|-------------------|
-------------------|-------------------------|-------------------|
--9----------------|--L--------9--7--(x)--5--|--L----------------|
--7----------------|--L--------7--5--(x)--3--|--L----------------|
-------------------|-------------------------|-------------------|


  H        E  E   E   E     W                   H        E  E   E   E
-------------------------|-------------------|-------------------------|
-------------------------|-------------------|-------------------------|
-------------------------|-------------------|-------------------------|
--L--------5--9--(x)--7--|--L----------------|--L--------7--5--(x)--4--|
--L--------3--7--(x)--5--|--L----------------|--L--------5--3--(x)--2--|
-------------------------|-------------------|-------------------------|


  W                   H        H           W
-------------------|--------------------|-------------------|
-------------------|--------------------|-------------------|
-------------------|--------------------|-------------------|
--L----------------|--5--------7--------|--9----------------|
--L----------------|--3--------5--------|--7----------------|
-------------------|--------------------|-------------------|


  H        E  E   E   E     W                   H        E  E   E   E
-------------------------|-------------------|-------------------------|
-------------------------|-------------------|-------------------------|
-------------------------|-------------------|-------------------------|
--L--------9--7--(x)--5--|--L----------------|--L--------5--9--(x)--7--|
--L--------7--5--(x)--3--|--L----------------|--L--------3--7--(x)--5--|
-------------------------|-------------------|-------------------------|


  W                   H        E  E   E   E     W
-------------------|-------------------------|-------------------|
-------------------|-------------------------|-------------------|
-------------------|-------------------------|-------------------|
--L----------------|--L--------7--5--(x)--4--|--L----------------|
--L----------------|--L--------5--3--(x)--2--|--L----------------|
-------------------|-------------------------|-------------------|


  H        H           W                   H        E  E   E   E
--------------------|-------------------|-------------------------|
--------------------|-------------------|-------------------------|
--------------------|-------------------|-------------------------|
--5--------7--------|--9----------------|--L--------9--7--(x)--5--|
--3--------5--------|--7----------------|--L--------7--5--(x)--3--|
--------------------|-------------------|-------------------------|


  W                   H        E  E   E   E     W
-------------------|-------------------------|-------------------|
-------------------|-------------------------|-------------------|
-------------------|-------------------------|-------------------|
--L----------------|--L--------5--9--(x)--7--|--L----------------|
--L----------------|--L--------3--7--(x)--5--|--L----------------|
-------------------|-------------------------|-------------------|


  H        E  E   E   E     W                   H        H
-------------------------|-------------------|--------------------|
-------------------------|-------------------|--------------------|
-------------------------|-------------------|--------------------|
--L--------7--5--(x)--4--|--L----------------|--5--------7--------|
--L--------5--3--(x)--2--|--L----------------|--3--------5--------|
-------------------------|-------------------|--------------------|


  W                   H        E  E   E   E     W
-------------------|-------------------------|-------------------|
-------------------|-------------------------|-------------------|
-------------------|-------------------------|-------------------|
--9----------------|--L--------9--7--(x)--5--|--L----------------|
--7----------------|--L--------7--5--(x)--3--|--L----------------|
-------------------|-------------------------|-------------------|


  H        E  E   E   E     W                   H        E  E   E   E
-------------------------|-------------------|-------------------------|
-------------------------|-------------------|-------------------------|
-------------------------|-------------------|-------------------------|
--L--------5--9--(x)--7--|--L----------------|--L--------7--5--(x)--4--|
--L--------3--7--(x)--5--|--L----------------|--L--------5--3--(x)--2--|
-------------------------|-------------------|-------------------------|


  W                   H        H
-------------------|--------------------|
-------------------|--------------------|
-------------------|--------------------|
--L----------------|--5--------7--------|
--L----------------|--3--------5--------|
-------------------|--------------------|


     PM PM PM PM PM PM    PM PM PM PM PM PM
  E  S  S  S  S  S  S  E  S  S  S  S  S  S
--------------------------------------------|
--------------------------------------------|
--------------------------------------------|
--------------------------------------------|
--2--------------------2--------------------|
--0--0--0--0--0--0--0--0--0--0--0--0--0--0--|


     PM PM PM PM PM PM                      PM PM PM PM    PM PM PM PM PM PM
  E  S  S  S  S  S  S  E  E  E  E     E  E  S  S  S  S  E  S  S  S  S  SS
-----------------------------------|----------------------------------------|
-----------------------------------|----------------------------------------|
-----------------------------------|----------------------------------------|
-----------------------------------|----------------------------------------|
--2--------------------2--4-----5--|--L--4--------------2-------------------|
--0--0--0--0--0--0--0--0--2--x--3--|--L--2--0--0--0--0--0--0--0--0--0--0--0-|


     PM PM PM PM PM PM                      PM PM PM PM    PM PM PM PM PM PM
  E  S  S  S  S  S  S  E  E  E  E     E  E  S  S  S  S  E  S  S  S  S  SS
-----------------------------------|----------------------------------------|
-----------------------------------|----------------------------------------|
-----------------------------------|----------------------------------------|
--------------------------------5--|--L--4----------------------------------|
--2--------------------2--4-----3--|--L--2--------------2-------------------|
--0--0--0--0--0--0--0--0--2--x-----|--------0--0--0--0--0--0--0--0--0--0--0-|


     PM PM PM PM PM PM                      PM PM PM PM    PM PM PM PM PM PM
  E  S  S  S  S  S  S  E  E  E  E     E  E  S  S  S  S  E  S  S  S  S  SS
-----------------------------------|----------------------------------------|
-----------------------------------|----------------------------------------|
-----------------------------------|----------------------------------------|
-----------------------------------|----------------------------------------|
--2--------------------2--4-----5--|--L--4--------------2-------------------|
--0--0--0--0--0--0--0--0--2--x--3--|--L--2--0--0--0--0--0--0--0--0--0--0--0-|


     PM PM PM PM PM PM                      PM PM PM PM    PM PM PM PM PM PM
  E  S  S  S  S  S  S  E  E  E  E     E  E  S  S  S  S  E  S  S  S  S  SS
-----------------------------------|----------------------------------------|
-----------------------------------|----------------------------------------|
-----------------------------------|----------------------------------------|
--------------------------------5--|--L--4----------------------------------|
--2--------------------2--4-----3--|--L--2--------------2-------------------|
--0--0--0--0--0--0--0--0--2--x-----|--------0--0--0--0--0--0--0--0--0--0--0-|


     PM PM PM PM PM PM                      PM PM PM PM    PM PM PM PM PM PM
  E  S  S  S  S  S  S  E  E  E  E     E  E  S  S  S  S  E  S  S  S  S  SS
-----------------------------------|----------------------------------------|
-----------------------------------|----------------------------------------|
-----------------------------------|----------------------------------------|
-----------------------------------|----------------------------------------|
--2--------------------2--4-----5--|--L--4--------------2-------------------|
--0--0--0--0--0--0--0--0--2--x--3--|--L--2--0--0--0--0--0--0--0--0--0--0--0-|


     PM PM PM PM PM PM                      PM PM PM PM    PM PM PM PM PM PM
  E  S  S  S  S  S  S  E  E  E  E     E  E  S  S  S  S  E  S  S  S  S  S  S
-----------------------------------|----------------------------------------|
-----------------------------------|----------------------------------------|
-----------------------------------|----------------------------------------|
--------------------------------5--|--L--4----------------------------------|
--2--------------------2--4-----3--|--L--2--------------2-------------------|
--0--0--0--0--0--0--0--0--2--x-----|--------0--0--0--0--0--0--0--0--0--0--0-|


     PM PM PM PM PM PM                      PM PM PM PM    PM PM PM PM PM PM
  E  S  S  S  S  S  S  E  E  E  E     E  E  S  S  S  S  E  S  S  S  S  SS
-----------------------------------|----------------------------------------|
-----------------------------------|----------------------------------------|
-----------------------------------|----------------------------------------|
-----------------------------------|----------------------------------------|
--2--------------------2--4-----5--|--L--4--------------2-------------------|
--0--0--0--0--0--0--0--0--2--x--3--|--L--2--0--0--0--0--0--0--0--0--0--0--0-|


     PM PM PM PM PM PM
  E  S  S  S  S  S  S  E  E  E  E     E  E  E  H        E
-----------------------------------|-----------------------|-----||
-----------------------------------|-----------------------|-----||
-----------------------------------|-----------------------|-----||
--------------------------------5--|--L--4-----------------|-----||
--2--------------------2--4-----3--|--L--2--2--------------|-----||
--0--0--0--0--0--0--0--0--2--x-----|--------0--------------|-----||


Duration Legend
---------------
W - whole
H - half
Q - quarter
E - 8th
S - 16th
T - 32nd
X - 64th
. - note dotted
|-n-|  - n-tuplets


Tablature Legend
----------------
L - tied note
x - dead note
g - grace note
(n) - ghost note
> - accentuded note
NH - natural harmonic
AH - artificial harmonic
TH - tapped harmonic
SH - semi harmonic
PH - pitch harmonic
h - hammer on
p - pull off
b - bend
br - bendRelease
pb - preBend
pbr - preBendRelease
brb - bendReleaseBend
n/ - tremolo bar dip
n - tremolo bar dive
-/n - tremolo bar Release up
/n - tremolo bar inverted dip
/n - tremolo bar return
-n - tremolo bar Release down
S - shift slide
s - legato slide
/ -  slide into from below or out of upwards
 -  slide into from above or out of downwards
~ - vibrato
W - wide vibrato
tr - trill
TP - tremolo picking
T - tapping
S - slap
P - pop
< - fade in
^ - brush up
v - brush down

ĂŽnscrie-te la newsletter


Join the ranks ! LIKE us on Facebook