The Hunter Bass Tab - Iced Earth






ICED EARTH
The hunter



                                                                            
F#||-----------|-------------------|-------------------|-------------------|
C#||-----------|-------------------|-------------------|-------------------|
G#||--------7--|--7----------------|----------------7--|--7----------------|
D#||-----------|-------------------|-------------------|-------------------|


                                                                               
------------------|-------------------|-------------------|-------------------|
------------------|-------------------|-------------------|-------------------|
------------------|-------------------|----------------7--|--7----------------|
------------------|--0----------------|-------------------|-------------------|


                                                                                
------------------|-------------------|--------------------|-------------------|
------------------|-------------------|--------------------|-------------------|
------------------|-------------------|-----------------7--|--7----------------|
------------------|--3----------------|--1-----------------|-------------------|


                                                                               
-------------------|-------------------|------------------|-------------------|
-------------------|-------------------|------------------|-------------------|
----------------7--|--7----------------|------------------|-------------------|
-------------------|-------------------|------------------|--3----------------|


                                                                                
-------------------|-----------------------------|-----------------------------|
-------------------|-----------------------------|-----------------------------|
-------------------|---------7--7------5------5--|---------7--7------3------3--|
--1----------------|--0--0-0-------0-0----0-0----|--0--0-0-------0-0----0-0----|


                                                            
-----------------------------|-----------------------------|
-----------------------------|-----------------------------|
---------7--7------5------5--|--3------3------3------3--5--|
--0--0-0-------0-0----0-0----|-----0-0----0-0----0-0-------|


                                                            
-----------------------------|-----------------------------|
-----------------------------|-----------------------------|
---------7--7------5------5--|---------7--7------3------3--|
--0--0-0-------0-0----0-0----|--0--0-0-------0-0----0-0----|


                                                            
-----------------------------|-----------------------------|
-----------------------------|-----------------------------|
---------7--7------5------5--|--3------3------3------3--5--|
--0--0-0-------0-0----0-0----|-----0-0----0-0----0-0-------|


                                                              
|------------------------------|-----------------------------|
|*-----------------------------|-----------------------------|
|*---------7--7--5-5-5--5-5-5--|---------7--7--2-2-2--2-2-2--|
|---0--0-0---------------------|--0--0-0---------------------|


                                                              
-----------------------------|------------------------------||
-----------------------------|-----------------------------*||
---------7--7--5-5-5--5-5-5--|--3--3-3-3--3-3-3--3-3-3/-5--*||
--0--0-0---------------------|------------------------------||


                                                               4x
-------------------------------|-------------------------------||
*------------------------------|------------------------------*||
*--7------7----------7------8--|--7------7----------7------8--*||
------0-0----0-0-0-0----0-0----|-----0-0----0-0-0-0----0-0-----||


                                                             
------------------------------|-----------------------------|
*-----------------------------|-----------------------------|
*---------7--7--5-5-5--5-5-5--|---------7--7--2-2-2--2-2-2--|
---0--0-0---------------------|--0--0-0---------------------|


                                                              
-----------------------------|------------------------------||
-----------------------------|-----------------------------*||
---------7--7--5-5-5--5-5-5--|--3--3-3-3--3-3-3--3-3-3/-5--*||
--0--0-0---------------------|------------------------------||


                                                               4x
-------------------------------|-------------------------------||
*------------------------------|------------------------------*||
*--7------7----------7------8--|--7------7----------7------8--*||
------0-0----0-0-0-0----0-0----|-----0-0----0-0-0-0----0-0-----||


                                                             
------------------------------|-----------------------------|
*-----------------------------|-----------------------------|
*---------7--7--5-5-5--5-5-5--|---------7--7--2-2-2--2-2-2--|
---0--0-0---------------------|--0--0-0---------------------|


                                                            3x
-----------------------------|------------------------------||
-----------------------------|-----------------------------*||
---------7--7--5-5-5--5-5-5--|--3--3-3-3--3-3-3--3-3-3/-5--*||
--0--0-0---------------------|------------------------------||


                                                                               
--------------------|------------------------||-------------------------------|
*-------------------|-----------------------*||*------------------------------|
*-------------------|-----------------------*||*------------------------------|
---0----------------|----------0--0-0-1--1---||---0--0-0-0--0-0-0--0-0-0--0-0-|


                                                         
------------------------||------------------------------|
-----------------------*||------------------------------|
-----------------------*||------------------------------|
----------0--0-0-1--1---||--3--3-3-3--3-3-3-3-3--3-3-3--|


                                                                
------------------------------||-------------------------------|
------------------------------||*------------------------------|
------------------------------||*------------------------------|
--1--1-1-1--1-1-1-1-1--1-1-1--||---0--0-0-0--0-0-0--0-0-0--0-0-|


                                                         
------------------------||------------------------------|
-----------------------*||------------------------------|
-----------------------*||------------------------------|
----------0--0-0-1--1---||--3--3-3-3--3-3-3-3-3--3-3-3--|


                                                              
------------------------------|------------------------------|
------------------------------|------------------------------|
------------------------------|--7------7----------7------8--|
--1--1-1-1--1-1-1-1-1--1-1-1--|-----0-0----0-0-0-0----0-0----|


                                                                
------------------------------||-------------------------------|
------------------------------||*------------------------------|
--7------7----------7------8--||*--7------7----------7------8--|
-----0-0----0-0-0-0----0-0----||------0-0----0-0-0-0----0-0----|


                               3x                               
-------------------------------||------------------------------|
------------------------------*||*-----------------------------|
--7------7----------7------8--*||*---------7--7--5-5-5--5-5-5--|
-----0-0----0-0-0-0----0-0-----||---0--0-0---------------------|


                                                            
-----------------------------|-----------------------------|
-----------------------------|-----------------------------|
---------7--7--2-2-2--2-2-2--|---------7--7--5-5-5--5-5-5--|
--0--0-0---------------------|--0--0-0---------------------|


                              3x                               
------------------------------||------------------------------|
-----------------------------*||------------------------------|
--3--3-3-3--3-3-3--3-3-3/-5--*||--7------7----------7------8--|
------------------------------||-----0-0----0-0-0-0----0-0----|


                                                                           
------------------------------|------------------------------|------------|
------------------------------|------------------------------|------------|
--7------7----------7------8--|--7------7----------7------8--|------------|
-----0-0----0-0-0-0----0-0----|-----0-0----0-0-0-0----0-0----|--0----0----|


        
Tabbed by Ed_Hunter


ĂŽnscrie-te la newsletter


Like us on Facebook