The Phantom Opera Ghost Tab - Iced Earth




Iced Earth:  The Phantom Opera Ghost

transcribed by: Russ Elton (vicelton@yahoo.com)

FIND EVERY ICED EARTH SONG AND
THE MOST UPDATED VERSION OF THIS SONG AT:

                          The Frozen Palace
                  http://truemetal.org/icedearth/

Date last modified:  01/15/02
  
PLEASE DO NOT COPY THIS TAB TO ANOTHER SITE 
WITHOUT AUTHORS' PERMISSION.  THANK YOU.

Tuning: Eb

Intro
 
Guitar 1 (12 string acoustic)                     x2
eb|------------------------------------------------|
Bb|------------------------------------------------|
Gb|---------9-----9-10--9-----9--------------------|
Db|--10-12----10----------12----10-12--9-10----10--|
Ab|------------------------------------------------|
Eb|------------------------------------------------|

eb|-------------------------------------------------|
Bb|-------------------------------------------------|
Gb|-------------------------------------------------|
Db|---7----10--9--7----10--9--7-----7--9--9-7---7--|
Ab|-----------------------------10------------------|
Eb|-------------------------------------------------|


Guitar 2 (Acoustic)                     x2
eb|--------------------------------------|
Bb|--------------------------------------|
Gb|--------------------------------------|
Db|-7-9-10-7-10-12-10-9-10-7-9-6-7-7-7-7-|
Ab|--------------------------------------|
Eb|--------------------------------------|

eb|----------------------------------------|
Bb|----------------------------------------|
Gb|------------------5-4----2-4--42-2-2-2-|
Db|-2-3-5-0-2-2-2-2-------5----------------|
Ab|----------------------------------------|
Eb|----------------------------------------|

eb|-------------------------------------|
Bb|-------------------------------------|
Gb|-------3-2-2-2-2--5-4----2-4--42--2-|
Db|-2-3-5-----------------5-------------|
Ab|-------------------------------------|
Eb|-------------------------------------|



Riff 1  (Distortion)       x2
eb|-------------------------|
Bb|-------------------------|
Gb|-------------------------|
Db|-------------------------|
Ab|-7-----7--5---8--8--8-7-|
Eb|-5-555-5--3---6--6--6-5-|
    * ***
eb|-------------------------|
Bb|-------------------------|
Gb|-------------------------|
Db|-------------------------|
Ab|-10-----10----8-----8--|
Eb|--8-888--8----6-666-6--|
     * ***        * ***


Riff 2
Guitar 1
eb|-------------------------------------|
Bb|-------------------------------------|
Gb|-------------------------------------|
Db|-7---9---10---7---10---12---10---9---|
Ab|---0---0----0---0----0----0----0---0-|
Eb|-------------------------------------|
    * * * *  * * * *  * *  * *  * * * *
   "I..."
eb|----------------------------------|
Bb|----------------------------------|
Gb|----------------------------------|
Db|-10---7---9---6---7-------7---7---|
Ab|----0---0---0---0---000-0---0---0-|
Eb|----------------------------------|
     * * * * * * * * * *** * * * * *
  "...feel you..."
eb|-------------------------------------|
Bb|-------------------------------------|
Gb|-------------------------------------|
Db|-7---9---10---7---10---12---10---9---|
Ab|---0---0----0---0----0----0----0---0-|
Eb|-------------------------------------|
    * * * *  * * * *  * *  * *  * * * *
  "From beyond the walls..."
eb|----------------------------------|
Bb|----------------------------------|
Gb|----------------------------------|
Db|-10---7---9---6---7-------7---7--|
Ab|----0---0---0---0---000-0-a-0-a---|
Eb|----------------------------------|
     * * * * * * * * * *** *   *
  "...speak to me..."

Guitar 2
eb|-------------------------------------------|
Bb|-------------------------------------------|
Gb|-------------------------------------------|
Db|------9------------------------------------|
Ab|-7-------7----7---9-10-----9--10--9-7------|
Eb|---------------------------------------5-5-|

Guitar 3
eb|-------------------------------------------|
Bb|-----12------------------------------------|
Gb|-9-------9----9--11-12----11--12-11-9------|
Db|---------------------------------------7-7-|
Ab|-------------------------------------------|
Eb|-------------------------------------------|



Riff 3
eb|---------------------------------|
Bb|---------------------------------|
Gb|---------------------------------|
Db|---------------------------------|
Ab|---------2-------32-----2-------|
Eb|-0-000-0-0-0-0-0-1
ĂŽnscrie-te la newsletter


Join the ranks ! LIKE us on Facebook