Waterloo Tab - Iced Earth




Band- Iced Earth
Song- Waterloo
Album- The Glorious Burden

Tuning: Eb


Intro

Guitar 1
eb|-----------------------------|
Bb|-----------------------------|
Gb|-------12--12--------11--11--|
Db|--------9---9---------9---9--|
Ab|--------7---7---------7---7--|
Eb|-0-000---------0-000---------|
    * ***         * ***
eb|-------------------------------|
Bb|-------------------------------|
Gb|-------12--12--------11--12-11-|
Db|--------9---9---------9---9--9-|
Ab|--------7---7---------7---7--7-|
Eb|-0-000---------0-000-----------|
    * ***         * ***

Repeat the two bars above, then:
eb|--------------------------------------|
Bb|--------------------------------------|
Gb|--------------------------------------|
Db|-7------------5-----------------------|
Ab|-5--------5-0-3--------0-3-2--------2-|
Eb|-----------------------------5-3--5---|
             * *          * * * *    *

Guitar 2
eb|-----------------------------|
Bb|-----------------------------|
Gb|---9-11-12--11-9--7~----11~--|
Db|-9---------------------------|
Ab|-----------------------------|
Eb|-----------------------------|

eb|-------------------------------------------|
Bb|-------------------------------------------|
Gb|---9-11-12--11-9--/14-12--11~-[--11-12-11]-|
ĂŽnscrie-te la newsletter


Join the ranks ! LIKE us on Facebook