When The Eagle Cries Tab - Iced Earth




theres no tab for when the eagle cries on electric so i got this tab directly from 
credit goes to Russ Elton (webmaster@abysslord.com)

Tuning: Eb

Riff 1 (12 string acoustic)
eb|--------------------------------|
Bb|-----------------------------0--|
Gb|-----------0---------------0----|
Db|-----4---4---4-------4---4------|
Ab|---2---2-------2---2---2--------|
Eb|-0---------------0--------------|

eb|--------------------------------|
Bb|-----------------------------0--|
Gb|-----------0---------------0----|
Db|-----4---4---4-------4---4------|
Ab|---2---2-------2---2---2--------|
Eb|-0---------------0--------------|

eb|-----------------------------|
Bb|-----------------------------|
Gb|------0------------2---------|
Db|---2-----2------4------4-----|
Ab|-3----------3-5-----------5--|
Eb|-----------------------------|

Riff 2 (Distortion)
Guitar 1
eb|-----------------|
Bb|-----------------|
Gb|-----------------|
Db|-----------2--2--|
Ab|-2----2----3--3--|
Eb|-0----0----------|
   "...cries..."
eb|---------------------|
Bb|---------------------|
Gb|-----------7--7--7-7-|
Db|-4----4----5--5--5-5-|
Ab|-5----5--------------|
Eb|---------------------|
   "Blood will flow..."

Final chord:
eb|-----|
Bb|-----|
Gb|-----|
Db|-----|
Ab|--2--|
Eb|--0--|
   "...cries..."

Guitar 2
eb|--------------------------|
Bb|------12-10-----12-10-----|
Gb|-9----------12--------12--|
Db|--------------------------|
Ab|--------------------------|
Eb|--------------------------|

eb|-------------------------------|
Bb|-10------------------10--------|
Gb|----11-7---------12------12-11-|
Db|-------------------------------|
Ab|-------------------------------|
Eb|-------------------------------|

Final note:
eb|-----|
Bb|-----|
Gb|--9--|
Db|-----|
Ab|-----|
Eb|-----|

Guitar 3
eb|---------------------------|
Bb|-------15-13-12--15-13-12--|
Gb|-12------------------------|
Db|---------------------------|
Ab|---------------------------|
Eb|---------------------------|

eb|-------------------------------|
Bb|-13-10-----------12--13--12-10-|
Gb|-------11----------------------|
Db|-------------------------------|
Ab|-------------------------------|
Eb|-------------------------------|

Final note:
eb|------|
Bb|------|
Gb|--12--|
Db|------|
Ab|------|
Eb|------|

Play Riff 1   "Out of the ashes..."
Play Riff 2   "...cries..."

Riff 3 (Solo Rhythm)
eb|------------------------------|
Bb|------------------------------|
Gb|------------------------------|
Db|------------------------------|
Ab|-2------2--------2---2--------|
Eb|-0--0-0-0--0-0-3-3-3-3--3-3-0-|
       * *    * * *   *    * * *
eb|-----------------------------|
Bb|-----------------------------|
Gb|-----------------------------|
Db|-----------------------------|
Ab|-5------5--------5--5--------|
Eb|-2--2-2-2--2-2-2-3--2--3-3-0-|
       * *    * * *       * * *
eb|------------------------------|
Bb|------------------------------|
Gb|------------------------------|
Db|------------------------------|
Ab|-2------2--------2---2--------|
Eb|-0--0-0-0--0-0-3-3-3-3--3-3-0-|
       * *    * * *   *    * * *
eb|-----------------------------|
Bb|-----------------------------|
Gb|-----------------------------|
Db|-----------------------------|
Ab|-5------5--------5--5--------|
Eb|-2--2-2-2--2-2-2-3--2--3-3-0-|
       * *    * * *       * * *
eb|-----------------------------|
Bb|-----------------------------|
Gb|-----------------------------|
Db|-2------2------2------2------|
Ab|-3--3-3-3--3-3-3--3-3-3--3-3-|
Eb|-----------------------------|
       * *    * *    * *    * *
eb|--------------------------|
Bb|--------------------------|
Gb|--------------------------|
Db|-4------4-------(9)--(7)--| 
ĂŽnscrie-te la newsletter


Join the ranks ! LIKE us on Facebook