Idea Of Fun Tab - Iggy Pop




Ok so... here's the song

Song is: My Idea Of Fun
by: Iggy Pop and the Stooges
        Tabed By Shawn M.

(this is my first tab I have ever made and there are no other tabs for this song so if 
don't like it learn how to play it yourself

 intro (doesnt sound quite right but it's better than no tab)

-------------|
-------------|
-------------|
--7----------|
----5--------|
5------------|

and then the main riff which is repeated over and over

------------------------------|
------------------------------|
12-11-9-7-12-11-9-7-9---------|
12-11-9/7-12-11-9/7-9---------|
10-9--7/5-10-9--7/5-7---------|
------------------------------|

then the guitar solo, but I don't know it yet. Oh and sorry but don't be expecxting it anytime soon. :P

ĂŽnscrie-te la newsletter


Join the ranks ! LIKE us on Facebook