Till Wrong Feels Right Tab - Iggy Pop




TIL WRONG FEELS RIGHT
By Iggy Pop

Intro:

e |-----------------|-----------------|-----------------|-----------------|
B |-----------------|-----------------|-----------------|-----------------|
G |-------------2-2-|-------------2-2-|-------------2-2-|-------------2-2-|
D |---4-----4-4-----|---4-----4-4-----|---4-----4-4-----|---4-----4-4-----|
A |-------4-4-------|-------4-4-------|-------4-4-------|-------4-4-------|
E |-2----22---------|-2----22---------|-2----22---------|-2----22---------|

Verse:

e |-----------------|-----------------|-2---------------|-2---------------|
B |-----------------|-----------------|---2-------------|---2-------------|
G |-------------2-2-|-------------2-2-|-----4-2---------|-----4-2-----2-2-|
D |---4-----4-4-----|---4-----4-4-----|---------4--44---|---------4-4-----|
A |-------4-4-------|-------4-4-------|--------(4)(44)--|--------(4)------|
E |-2----22---------|-2----22---------|--------------(2)|-----------------|

e |-----------------|-----------------|-----------------|-----------------|
B |---2-----2-2-2-2-|---2-----2-2-2-2-|-----------------|-----------------|
G |-----------------|-----------------|-------------2-2-|-------------2-2-|
D |-----------------|-----------------|---4-----4-4-----|---4-----4-4-----|
A |-4----44-4---4---|-4----44-4---4---|-------4-4-------|-------4-4-------|
E |-----------------|-----------------|-2----22---------|-2----22---------|

Bridge:

e |---2-----2-2-2-2-|---2-----2-2-2-2-|---2-----2-2-2-2-|---2-----2-2-2-2-|
B |---2-----2-2-2-2-|---2-----2-2-3-3-|---2-----2-2-2-2-|---2-----2-2-3-3-|
G |---2-----2-2-3-3-|---2-----2-2-2-2-|---2-----2-2-3-3-|---2-----2-2-2-2-|
D |---4-----4-4-4-4-|---4-----4-4-2-2-|---4-----4-4-4-4-|---4-----4-4-2-2-|
A |---4-----4-4-4-4-|---4-----4-4-4-4-|---4-----4-4-4-4-|---4-----4-4-4-4-|
E |-2----22---------|-2----22---------|-2----22---------|-2----22---------|

I took a poundin' 
From the radio today 
I heard the radio say some piece of s**t
Was it the sound of today? 

I took a bitin' 'beating' 
When I saw my TV play, I saw my TV play 
Over and over 
And there were no escape 

The box is hallow 
And that riff is f*****g dead, 
That riff is f*****g dead, but the riff is poundin' 
In my f*****g head 

They're gonna push it 
Until false is true 
Until day is night, they're gonna push it baby 
Until wrong feels right 

It's a big industry 
And they can beat my brain 
With houses and wars and chains, they are insane 
But they can beat my brain 

God and his captains 
They won't pull a f*****g plug
They won't pull a f*****g plug and give the skies 
Back to the birds and bugs

End on F# on the word "...bugs".

ĂŽnscrie-te la newsletter


Join the ranks ! LIKE us on Facebook