My Demension (ver2) Tab - Immortal






Artist:    Immortal
Title:     My Dimension
Album:     Damned in Black
Track#:    4
Copyright: (C) 2000, Osmose Productions

Version 1.0  -  27-02-2005
Transcribed by: Sven v. Haastregt
Email:          svenvh  gmail.com
Website:        http://www.liacs.nl/~svhaastr/tabs.html

Standard Tuning (E A D G B E)

Used symbols:
 "     tremolo picking              h   hammer-on
      slide downwards              p   pull-off
 /     slide upwards                .   palm-mute
 < >   harmonic                     >   let ring


(0:02)
Riff A: 2x
 E|---------------------------------|-----------------------------------|
 B|---------------------------------|-----------------------------------|
 G|-------------------------2-4-5-2-|-------------------------2-4-5-----|
 D|-2-----2/4-----4/5-------0-2-3-0-|-2-----2/4-----4/5-------0-2-3--|
 A|---------------------------------|-----------------------------------|
 E|---0-0-----0-0-----0-0-0---------|---0-0-----0-0-----0-0-0-----------|
 PM   . .     . .     . . .             . .     . .     . . .

 E|---------------------------------|-----------------------------------|
 B|---------------------------------|-----------------------------------|
 G|-------------------------2-4-5-2-|-------------------------5-5-5-5---|
 D|-2-----2/4-----4/5-------0-2-3-0-|-2-----2/4-----4/5-------3-3-3-3---|
 A|---------------------------------|-----------------------------------|
 E|---0-0-----0-0-----0-0-0---------|---0-0-----0-0-----0-0-0-----------|
 PM   . .     . .     . . .             . .     . .     . . .



(0:28)
Riff B: 2x
 E|----------------------------------|------------------------------------|
 B|----------------------------------|------------------------------------|
 G|----------------------------------|------------------------------------|
 D|-2------2-0------2--------2-0-2-3-|-2------2-0------2--------2-2-0---0-|
 A|-------------------3--------------|-------------------3------------3---|
 E|---0000-----0000-----0000---------|---0000-----0000-----0000-----------|
 PM   ....     ....     ....             ....     ....     ....



(0:40)
Riff A; 2x


(0:53)
Riff B; 2x


(1:06)
Riff C: 4x
 E|--------------------------------------|-----------------------------------|
 B|--------------------------------------|-----------------------------------|
 G|--------------------------------------|-----------------------------------|
 D|-2------2/3------0----2----3-3






Like us on Facebook