Sons Of Northern Darkness (ver2) Tab - Immortal






band - immortal
song - sons of northern darkness
album - sons of northern darkness
tuning - (D,G,C,F,A,D,)

 all music - by abbath & horgh
 all lyrics - by demonaz

 there wasnt a full tab of this song that was complete,ive also tabbed the
 solo, as far as i know im the first to tab it and it sounds pretty good.

/ = slide
* = palm mute
~ = let note ring
' = trem pick
h = hammer on
p = pull off
t = tap
(12) = harmonic

    INTRO (RIFF 1)               1st end--2nd end----3rd end--4--------------|th end
D---------------------------------]----]-------------]----]------------------|
A---------------------------------]----]-------------]----]------------------|
F---------------------------------]----]-------------]----]------------------|
C------12'----------12'------12'--]-7'-]------12'----]-7'-]-----------11/12--|
G------10'----------10'------10'--]-8'-]---9'-10'----]-8'-]---9----9---9/10--|
D--000------000-000------000------]----]--10'-----0--]----]--10-0-10-0-------|
   ***      *** ***      ***                      *             *    *

     RIFF 2  x2                   END 1,2,3,       4th end
D-------------------------------]------------------]------]
A-------------------------------]------------------]------]
F-------------------------------]------------------]------]
C-------12'------12'-------12'--]--7'---8'------8--]--6~--]
G-------10'------10'-------10'--]--9'--10'--9h10---]--6~--]
D--0000-----0000------0000------]------------------]--4~--]
   ****     ****      ****

    RIFF 3                                     2ND END
D-------------------------------------------]------------]
A-------------------------------------------]------------]
F-------------------------------------------]------------]
C--9'--------8'-------5'----------4'-3'-----]-----4'-3'--]
G--7'-------10'-------7'-------5'-------5'--]--5'--------]
D-----0-00------0-00------000---------------]------------]
      * **      * **      ***
RIFF 2 X1
RIFF 3 X2


   RIFF 4
D----------------------------------------------------------]
A----------------------------------------------------------]
F--7-7777-7-777--------------------------------------------]
C--5-5555-5-555-9-9999-9-999--9999999999-----7/9999999999--]
G--5-5555-5-555-9-9999-9-999--7777777777-----5/7777777777--]
D---------------7-7777-7-777-------------000---------------]
                                         ***
                                  END 1
D-----------------------------]------------------------]
A-----------------------------]------------------------]
F--7-7777-7-777-7-7777-7-777--]---9--9-11'-12'-11'-9'--]
C--5-5555-5-555-7-7777-7-777--]---X--X--X--XX---X--X'--]
G--5-5555-5-555-5-5555-5-555--]---7--7--9'-10'--9'-7'--]
D-----------------------------]------------------------]

       2ND END
D---------------------------------------------------]
A---------------------------------------------------]
F---------------------------------------------------]
C--9-9-11'-12'-14'-13'-16'-17'-14'-13'-16'-17'-19'--]
G--X-X--X--XX--XX--XX--XX--XX--XX--XX--XX--XX--XX---]
D--7-7--9'-10'-12'-11'-14'-15'-12'-11'-14'-15'-17'--]


RIFF 4 X2
RIFF 3 X4


   SOLO
D-----------------------------------------------------------------------(12--|
A----------------------------------------------------------------------------|
F----------------------------------------------------------------------------|
C--------------------12-14-15-12-14---12-------------------------------------|
G-----------12-14-15---------------15----14-13-------------------------------|
D--12-14-15------------------------------------15~-17-15-14-1214-12-11~------|


D--19P15-15-19P15-15--------]----------22~--]
A---------------------------]---------------]
F-PLAY THIS A HEAP OF TIMES-]---------------]
C---------------------------]--16-17~-------]
G---------------------------]---------------]
D---------------------------]---------------]

    T        T        T        T        T        T        T        T
D--19-15P12-19-15P12-19-15P12-19-15P12-19-15P12-19-15P12-19-15P12-19-15P12-]
A--------------------------------------------------------------------------]
F--------------------------------------------------------------------------]
C--------------------------------------------------------------------------]
G--------------------------------------------------------------------------]
D--------------------------------------------------------------------------]

    T        T         T        T        T        T        T        T
D--19-15P12-19-15P12--------------------------------------------------------|
A---------------------19-15P12-20-15P12-19-15P12-20-15P12-19-15P12-20-15P12-|
F---------------------------------------------------------------------------|
C---------------------------------------------------------------------------|
G---------------------------------------------------------------------------|
D---------------------------------------------------------------------------|

    T        T         T     T     T     T
D---------------------19-15-19-15-19-15-19-15-12/-------]
A--19-15P12-20-15P12------------------------------------]
F-------------------------------------------------------]
C-------------------------------------------------------]
G-------------------------------------------------------]
D-------------------------------------------------------]

RIFF 2 X1
RIFF 3 X1
INTRO RIFF 1 X1 -OUTRO

 THATS IT,PLEASE RATE THIS LET ME NOW WHAT YOU THINK OF THE SOLO.


 TABBED BY - IMMORTAL_STONE






Like us on Facebook