The Sun No Longer Rises Tab - Immortal






I'm in standard,, but you can mess w/ the tuning and see what sounds better to you.


                                    
e/------0-0-0----0-0-0----0-0-0----0-0--- 2x
B/------1-0-1----1-0-1----1-0-1----1-0---
G/------0-0-0----0-0-0----0-0-0----0-0---
D/---------------------------------------
A/---2--------3-2------3-2------3-2------
E/---0--------1-0------1-0------1-0------
     __________________________________
tremolo pick
  

e/---------------------------------- 2x l
B/----------------------------------    l
G/--------9--8--9--------7--6----7--    l
D/-6------6--6--6---4----4--4----4--    l  
A/-7------7--7--7---5----5--5----5--    l 
E/----------------------------------    l
   _______________________________       1                               
t.p.                                     l______play this twice
                                         1
e/---------------------------------- 2x l
B/----------------------------------    l 
G/--------5--4--5--------7--6----7--    l
D/-2------2--2--2---4----4--4----4--    l
A/-3------3--3--3---5----5--5----5--    l
E/----------------------------------    l
   ________________________________
t.p.

e/-------------------- 4x
B/--------------------
G/------0-----21------
D/-----------3--2-----
A/-2--------3---------
E/-0------------------

e/---------------------------- 4X
B/----------------------------
G/------------0---------21----
D/---------------------3--2---
A/-2--22222222--22222-3----3--
E/-0--00000000--00000---------

When the vocals come in you can play either the riff above or below. 4X

e/-----------------
B/-----------------
G/------0----21----
D/----------3--2---
A/--2------3----3--
E/--0--------------




e/------------------ 4X   /-----
B/------------------      /-----
G/--0--0--0---------      /----- ON FOURTH TIME LET RING
D/------------------      /-----
A/-3--4--3--222-222-      /-2---
E/-1--2--1--000-000-      /-0---

e/-------------------------- 4X
B/--------------------------
G/------------0--------21---
D/--------------------3--3--
A/-2--22222222-22222-3----3-
E/-0--00000000-00000--------

AGAIN... ABOVE OR BELOW 4X.

e/--------------
B/--------------
G/-----0---21---
D/--------3--2--
A/-2-----3----3-
E/-0------------



e/------------------ 4X   /-----
B/------------------      /-----
G/--0--0--0---------      /----- ON FOURTH TIME LET RING
D/------------------      /-----
A/-3--4--3--222-222-      /-2---
E/-1--2--1--000-000-      /-0---

e/-------------------------------------- 2X
B/--------------------------------------
G/--------------------------------------
D/-7----8----7----8----7----8----7----6-
A/-7----8----7----8----7----8----7----6-
E/-5-00-6-00-5-00-6-00-5-00-6-00-5-00-4-

(PAUSE)
THE SUN NO LONGER RISES...
e/-------------------------------------- 4X
B/--------------------------------------
G/--------------------------------------
D/-7----8----7----8----7----8----7----6-
A/-7----8----7----8----7----8----7----6-
E/-5-00-6-00-5-00-6-00-5-00-6-00-5-00-4-

e/------- 4X
B/-------
G/-------
D/-------
A/-----9-
E/-33337- 

e/-------------------------------------- 4X
B/--------------------------------------
G/--------------------------------------
D/-7----8----7----8----7----8----7----6-
A/-7----8----7----8----7----8----7----6-
E/-5-00-6-00-5-00-6-00-5-00-6-00-5-00-4-

e/--0-0----0-0----0-0----0-0---- 2X
B/--1-0----1-0----1-0----1-0----
G/--0-0----0-0----0-0----0-0----
D/------------------------------
A/-2----3-2----3-2----3-2-------
E/-0----1-0----1-0----1-0-------
   _____________________________
TREMOLO PICK

e/------------------------ 2X 1
B/------------------------    1
G/-----9-8-9-----7-6---7--    1
D/-6---6-6-6-4---4-4---4--    1
A/-7---7-7-7-5---5-5---5--    1
E/------------------------    1
   _____________________       1
TREOMOLO PICK                  1
                               1________PLAY TWICE
e/------------------------ 2X 1
B/------------------------    1
G/-----5-4-5-----7-6---7--    1
D/-2---2-2-2-4---4-4---4--    1
A/-3---3-3-3-5---5-5---5--    1
E/------------------------    1
   ______________________ 
TREM. PICK

e/--0-0----0-0----0-0----0-0---------
B/--1-0----1-0----1-0----0-1---------
G/--0-0----0-0----0-0----0-0---------
D/-----------------------------------
A/-2----3-2----3-2----3-2----3-3-3-2-
E/-0----1-0----1-0----1-0----1-1-1-0-
                            
   _________________________
TREM. PICK


THATS IT.. I THINK ITS RIGHT... ANY CORRECTIONS EMAIL ME @
infernal.v666@gmail.com






Like us on Facebook