Call Me Tab - In This Moment






Song: Call Me
Artist: In This Moment

Yea so like, I hope I got the solo right! LOL This is my first solo tabbed and i tried 
learn it on my own and i think i got it right! Nobody was putting this tab online so yea 
put it on.

Cool band but like the only thing they have going for them is the hot singer lol.

Questions/Comments: radioheadfreak666@gmail.com

Tuning: Standard A (7 String)

The band uses standard B (7 String) but like i was tuned a whole step down and i was too 
to tune it up lol so yeah. sorry. haha.

Intro

D|--------------------------------------------------------------|
A|--------------------------------------------------------------|
F|----------------------------------------------13--------------|
C|-12h14-14-14-12h14-14-14-12h14-14-14-16-14-------14-16--------|
G|-------------------------------------------17-----------------|
D|--------------------------------------------------------------|
A|--------------------------------------------------------------|

D|--------------------------------------------------------------|
A|--------------------------------------------------------------|
F|-------------------------------------16-14--------------------|
C|-12h14-14-14-12h14-14-14-12h14-14-14-------17-14-16-17--------|
G|--------------------------------------------------------------|
D|--------------------------------------------------------------|
A|--------------------------------------------------------------|

Verse

D|--------------------------------------------------------------|
A|--------------------------------------------------------------|
F|--------------------------------------------------------------|
C|-2-10-2-10-7-9-7-9--------------------------------------------|
G|-2-10-2-10-7-9-7-9--------------------------------------------|
D|-0--8-08--5-7-5-7--------------------------------------------|
A|--------------------------------------------------------------|

Chorus

D|--------------------------------------------------------------|
A|--------------------------------------------------------------|
F|--------------------------------------------------------------|
C|-2-5-7-10-----------------------------------------------------|
G|-2-5-7-10-----------------------------------------------------|
D|-0-3-5--8-----------------------------------------------------|
A|--------------------------------------------------------------|

Post-Chorus

D|--------------------------------------------------------------|
A|--------------------------------------------------------------|
F|---6---6---7--------------------------------------------------|
C|-4-6-4-6-5-7--------------------------------------------------|
G|-4-4-4-4-5-5--------------------------------------------------|
D|-2---2---3----------------------------------------------------|
A|--------------------------------------------------------------|

Pre-Solo

D|--------------------------------------------------------------|
A|--------------------------------------------------------------|
F|--------------------------------------------------------------|
C|-2-10-7-9-----------------------------------------------------|
G|-2-10-7-9-----------------------------------------------------|
D|-0--8-5-7-----------------------------------------------------|
A|--------------------------------------------------------------|

Solo

D|--------------------------------------------------------------|
A|--------------------------------------------------------------|
F|-18-16--------------------------------------------------------|
C|-------19-18--18-21-19-18-21-19-19-18-14-11-------------------|
G|--------------------------------------------------------------|
D|--------------------------------------------------------------|
A|--------------------------------------------------------------|

D|-------------19-17-16-19-17----16-----------------------------|
A|----------------------------17----17--------------------------|
F|-18-16-------------------------------18-----------------------|
C|-------19-18--------------------------------------------------|
G|--------------------------------------------------------------|
D|--------------------------------------------------------------|
A|--------------------------------------------------------------|

D|----------16-17-16----19-17-----------------------------------|
A|----17-19----------19-------20----15-17-19-15-17-19-19-17-15--|
F|-18-----------------------------------------------------------|
C|--------------------------------------------------------------|
G|--------------------------------------------------------------|
D|--------------------------------------------------------------|
A|--------------------------------------------------------------|

D|--------------------------------------------------------------|
A|-------------------------(17-19-20--x11)----------------------|
F|-19-19*-------------------------------------------------------|
C|--------------------------------------------------------------|
G|--------------------------------------------------------------|
D|--------------------------------------------------------------|
A|--------------------------------------------------------------|

D|-20-20-18-17--------------------------------------------------|
A|-------------20-20-18-17--------------------------------------|
F|-------------------------20-20-18-17h18p17-16-----------------|
C|--------------------------------------------------------------|
G|--------------------------------------------------------------|
D|--------------------------------------------------------------|
A|--------------------------------------------------------------|

Order:

IntroX2
VerseX1
ChorusX2
IntroX1
VerseX1
ChorusX2
IntroX1 First Half Only
Post-ChorusX1
Pre-SoloX1
SoloX1
ChorusX4
IntroX1






Like us on Facebook