Forever Tab - In This Moment




Forever By In This Moment
please comment, might not be right :P
I only have the lead guitar for now tho

Intro: (repeat throughout full intro)
e(-------------------------------------------------------------------------)
b(-8-----6--8-----6--8-----8-10--7-9--6------------------------------------)
g(---6-7------6-7------6-7-------------------------------------------------)
d(-------------------------------------------------------------------------)
a(-------------------------------------------------------------------------)
e(-------------------------------------------------------------------------)

Verse:                                                                   x4
e(-------------------------------------------------------------------------)
b(-----8-9-8-----8---------------------------------------------------------)
g(---7---------7-----------------------------------------------------------)
d(-6---------6------777-999999-555555--------------------------------------)
a(------------------777-999999-555555--------------------------------------)
e(-------------------------------------------------------------------------)

Pre Chorus:
e(-------------------------------------------------------------------------)
b(-------------------------------------------------------------------------)
g(------------------------------------------------2------------------------)
d(-2---------999999-555555-777777777777-2---------2-0h2-0h2----------------)
a(-2-0h2-0h2-999999-555555-777777777777-2-0h2-0h2-0------------------------)
e(-0---------777777-333333-555555555555-0----------------------------------)

Chorus:                         x4
e(---------------------------------*---------------------------------------)
b(---------------------------------*---------------------------------------)
g(---------------------------------*---------------------------------------)
d(-999999-555555-777777777777------*-2-------------------------------------)
a(-999999-555555-777777777777------*-2-0h2-0h2-----------------------------)
e(-777777-333333-555555555555------*-0-------------------------------------)

Play intro, verse, pre chorus, and chorus again then ...
only after chorus play
d(-2----)
a(-2----)
e(-0----)
instead of
d(-2----------)
a(-2-0h2-0h2--)
e(-0----------)

Break:
e(---------------)
b(---------------)
g(---------------)
d(-77777-99999---)
a(-77777-99999---)
e(---------------)

Bridge:
e(-------------------------------------------------------------------------)
b(-------------------------------------------------------------------------)
g(-------------------------------------------------------------------------)
d(-------------------------------------------------------------------------)
a(-/5-7-5-5h6-3-5-3-3h4-1-3-1-1h2-0-5-3-1-5-7-5-5h6-3-5-3-3h4-1-3-2-1h2-0--)
e(-------------------------------------------------------------------------)

Brigde: (Contd)                     play over and over
e(------------*----------------------------------------*-------------------)
b(------------*----------------------------------------*-------------------)
g(------------*----------------------------------------*-------------------)
d(-55-55-6666-*-999999999999-555555555555-777777777777-*-55----5-5-77b-----)
a(-55-55-6666-*-999999999999-555555555555-777777777777-*-55-x4-5-5-77b-x6--)
e(-33-33-4444-*-777777777777-333333333333-555555555555-*-33----3-3-55b-----)

Break 2:
e(------------------------7--------------------------------------------------)
b(------------------------9--------------------------------------------------)
g(-------3-----7-----9----9--------------------------------------------------)
d(-2---2-----6-----8----------pick*slide-------------------------------------)
a(-2-0-----4-----6-----------------------------------------------------------)
e(-0-------------------------------------------------------------------------)

chorus again  then the solo comes in but i could not figure it out:P

ĂŽnscrie-te la newsletter


Join the ranks ! LIKE us on Facebook