Gunshow Intro Tab - In This Moment






Drop A tuning on 7 string.

e|---------------------------------|------------------------------|
B|---------------------------------|------------------------------|
G|---------------------------------|------------------------------|
D|-------------------------3-------|------------------------------|
A|-------------------------1-------|------------------------------|
E|-0---0---3---0---0---0---1---0---|-0---0---3---0---0---0--------|
A|-0---0---3---0---0---0---1---0---|-0---0---3---0---0---0---6----|

E|---------------------------------|
B|---------------------------------|
G|---------------------------------|
D|-------------------------3-------|
A|-------------------------1-------|
E|-0---0---3---0---0---0---1---0---|
A|-0---0---3---0---0---0---1---0---|


e|-----------------------------------|--------|
B|-----------------------------------|--------|
G|-----------------------------------|--------|
D|-----------------------------------|--------|
A|-----------------------------------|--------|
E|-0---0---3---0---0---0-------------|--------|
A|-0---0---3---0---0---0---6--5--3---|--------|






Like us on Facebook