Prayers Intro Tab - In This Moment






(This is for Rift Guitar Only)

^ - hold note

Drop D Tuning (DADGBE)

E---------------------------------------------------|
B---------------------------------------------------|
G---------------------------------------------------|
D--5----------3----------0-----------1^-------------|
A--5----------3----------0-----------1^-------------|
D--5----------3----------0-----------1^-------------|

E---------------------------------------------------|
B---------------------------------------------------|
G---------------------------------------------------|
D--5----------3----------0-----------1^-------------|
A--5----------3----------0-----------1^-------------|
D--5----------3----------0-----------1^-------------|

E----------------------------------------------------|
B----------------------------------------------------|
G----------------------------------------------------|
D-5-5-5-5-5-5-5-5-5-5-5-5-5-3-3-3-3-3-3-3-3-3-3-3-3--|
A-5-5-5-5-5-5-5-5-5-5-5-5-5-3-3-3-3-3-3-3-3-3-3-3-3--|
D-5-5-5-5-5-5-5-5-5-5-5-5-5-3-3-3-3-3-3-3-3-3-3-3-3--|

E----------------------------------------------------|
B----------------------------------------------------|
G----------------------------------------------------|
D-0-0-0-0-0-0-0-0-0-0-0-0-0-1-1-1-1-1-1-1-1-1-1-1-1--|
A-0-0-0-0-0-0-0-0-0-0-0-0-0-1-1-1-1-1-1-1-1-1-1-1-1--|
D-0-0-0-0-0-0-0-0-0-0-0-0-0-1-1-1-1-1-1-1-1-1-1-1-1--|

Thats it so far. The rift guitar basic repeats this through out most of the song but 
joins in on some aprts with lead. Cant figure out the notes yet. Enjoy this and add to it.






Like us on Facebook