The Legacy Of Odio Tab - In This Moment




In this moment - Legacy Of Odio


Drop D tuning (DADGBe)

INTRO

E|------------5-----------------------------5-----------------|
G|----7---9-------9-7---5---9-5-----7---9-------9-7---5---9-5-|
B|--6---6---6---6-----6---6-------6---6---6---6-----6---6-----|
D|------------------------------------------------------------|
A|------------------------------------------------------------|
D|4-----------------------------4-----------------------------|

E|------------5-----------------------------5-----------------|
G|----7---9-------9-7---5---9-5-----7---9-------9-7---5---9-5-|
B|--6---6---6---6-----6---6-------6---6---6---6-----6---6-----|
D|------------------------------------------------------------|
A|------------------------------------------------------------|
D|0-----------------------------4-----------------------------|


VERSE & CHORUS 


E|-----------------------------------------------------------|
G|-----------------------------------------------------------|
B|-9---------------------------------------------------------|
D|-7-(X8)--4-------7-------7-7-7-6-6--6-6-6-7-7-9-9----------|
A|-5-------2-(X8)--7-(x2)-------------------------7-(x8)-----|
D|---------2-------4------------------------------7----------|


Thats it i think..

Tabbed by johnny pal - johnnythebratsoni@hotmail.com

ĂŽnscrie-te la newsletter


Join the ranks ! LIKE us on Facebook