Light Grenades (album) Tab - Incubus




Incubus Light Grenades

A Kiss to Send Us Off
Standard Tuning


Intro/Bridge
|-------------|
|-------------|
|---11---12---|
|---12---12---|
|--(10)-(10)--|
|-------------|

 Chorus
|-----------------|---------------------|
|-----------------|---------------------|
|-----------------|-5-5-5-5-5-x-x-8-8-8-|
|-5-5-/-8--2-2-2-|-5-5-5-5-5-x-x-8-8-8-|
|-5-5-/-8--2-2-2-|-3-3-3-3-3-x-x-6-6-6-|
|-3-3-/-6--0-0-0-|---------------------|

 Verse
|----------------------------|
|----------------------------|
|-0---0---0---0---0---0---0--|
|-12--13--12--10--12-1---3--|
|----------------------------|
|----------------------------|
  8   4   1   1   1   13  3   (# of times to play note)

|-----------------------------------|
|-----------------------------------|
|-0---0---0---0---0---0--0-0-0-0-0--|
|-12--13--12--10--12-1--7-7-7b8r7--|
|-----------------------------------|
|-----------------------------------|
  8   4   1   1   1   8

|-----------------|---------------------|
|-----------------|---------------------|
|-----------------|-5-5-5-5-5-x-x-8-8-8-|
|-5-5-/-8--2-2-2-|-5-5-5-5-5-x-x-8-8-8-|
|-5-5-/-8--2-2-2-|-3-3-3-3-3-x-x-6-6-6-|
|-3-3-/-6--0-0-0-|---------------------|

|----------------------------|
|----------------------------|
|-0---0---0---0---0---0---0--|
|-12--13--12--10--12-1---3--|
|----------------------------|
|----------------------------|
  8   4   1   1   1   13  3

|-----------------------------------|
|-----------------------------------|
|-0---0---0---0---0---0--0----------|
|-12--13--12--10--12-1--7-7-7b8r7--|
|-----------------------------------|
|-----------------------------------|
  8   4   1   1   1   8

|-----------------|---------------------|
|-----------------|---------------------|
|-----------------|-5-5-5-5-5-x-x-8-8-8-|
|-5-5-/-8--2-2-2-|-5-5-5-5-5-x-x-8-8-8-|
|-5-5-/-8--2-2-2-|-3-3-3-3-3-x-x-6-6-6-|
|-3-3-/-6--0-0-0-|---------------------|

|-----------------|---------------------|
|-----------------|---------------------|
|-----------------|-5-5-5-5-5-x-x-8-8-8-|
|-5-5-/-8--2-2-2-|-5-5-5-5-5-x-x-8-8-8-|
|-5-5-/-8--2-2-2-|-3-3-3-3-3-x-x-6-6-6-|
|-3-3-/-6--0-0-0-|---------------------|

Breakdown
|-------------|
|-------------|
|---11---12---|
|---12---12---|
|--(10)-(10)--|
|-------------| (2nd Guitar
|                comes in)
|-------------|
|-------------|
|-------------|
|----4---5----|
|----5---5----|
|----3---3----|

|-----------------|---------------------|
|-----------------|---------------------|
|-----------------|-5-5-5-5-5-x-x-8-8-8-|
|-5-5-/-8--2-2-2-|-5-5-5-5-5-x-x-8-8-8-|
|-5-5-/-8--2-2-2-|-3-3-3-3-3-x-x-6-6-6-|
|-3-3-/-6--0-0-0-|---------------------|


Dig

Standard Tuning (EADGbe)

Intro: [delay/light distortion]

e|---------16-----------------16-----------------16--------------------16-----|
b|----16------16---16----16------16---16----14------14----14-----14-------14--|
G|----------------------------------------------------------------------------|
D|-14---14------14-----14--14------14----16---16------16----------------------|
A|------------------------------------------------------------16----16--------|
E|----------------------------------------------------------------------------|

Also plays this in there... listen carefully

-------18p16-----|
---14--------14--|
-----------------|
-----------------|
-16--16----------|
-----------------|

Verse:
Chords

Emaj     F#maj   C#min
-0--     -2--     -4--|
-0--     -2--     -5--|
-1--     -3--     -6--|
-2--     -4--     -6--|
-2--     -4--     -4--|
-0--     -2--     ----|

We all have a weakness
But some of ours are easier to identify. Look me in the eye
& ask for forgiveness;
we'll make a pact to never speak that word again.
Yes, you are my friend.
We all have something that digs us,
at least we dig each other.
So when weakness turns my ego up
I know you'll count on the me from yesterday.


Chorus:
Lead guitar
e|------------------------------------------------/11---------11------9-9h11-11--|
b|----11--------11-------11---11-11-----11---11----------------------------------|
g|-13-----13-13--------8----8-------8--------------------------------------------|
D|-------------------------------------------------------9-------9---------------|
A|---------------------------------------------------------11--------------------|
E|-------------------------------------------------------------------------------|

------------------------------------------9--------------------------------------|
----11--------11-------11---11-11------------------------------------------------|
-13-----13-13--------8----8-------8----------11----11----------------------------|
--------------------------------------11-----------11----------------------------|
---------------------------------------------------9---11-11-11-9-9-9-9---------|
---------------------------------------------------------------------------------|

----------------------------------------------------12---12-11---9---------------|
----11--------11-------11---11-11-----11~~~~11--12-------------------------------|
-13-----13-13--------8----8-------8--------------------9-------9-----------------|
---------------------------------------------------------------------------------|
---------------------------------------------------------------------------------|
---------------------------------------------------------------------------------|

-----------------------------------------14------14------14~~~~------------------|
------11--------11-----11---11-11-----12-----12-----12---12~~~~------------------|
-13-----13-13--------8----8-------8----------------------11~~~~------------------|
---------------------------------------------------------------------------------|
---------------------------------------------------------------------------------|
---------------------------------------------------------------------------------|

Chords: (play in order)

Emaj      Bmaj     F#maj     C#min      Emaj     Bmaj     Emaj    F#maj
-0--      -2--      -2--      -4--      -0--     -2--     -0--     -2--
-0--      -4--      -2--      -5--      -0--     -4--     -0--     -2--
-1--      -4--      -3--      -6--      -1--     -4--     -1--     -3--
-2--      -4--      -4--      -6--      -2--     -4--     -2--     -4--
-2--      -2--      -4--      -4--      -2--     -2--     -2--     -4--
-0--      ----      -2--      ----      -0--     ----     -0--     -2--

If I turn into another
dig me up from under what is covering
the better part of me.
Sing this song
remind me that we'll always have each other
when everything else is gone.


Verse:
We all have a sickness
that cleverly attaches & multiplies
No matter how we try.
We all have someone that digs at us,
at least we dig each other.
So when sickness turns my ego up
I know you'll act as a clever medicine.


Chorus:
If I turn into another
dig me up from under what is covering
The better part of me.
Sing this song!
Remind me that we'll always have each other
when everything else is gone.
OK, each other when everything else is gone.

Anna Molly
Standard Tuning

* = pinch harm.

   Gtr I  (fast strumming pattern)
 Intro/Chorus
|--8----6----4------------------8---6----4----1----3-|
|--8----8----4------------------8---8----4----1----3-|
|--8----8----5---8/-10-10-10----8---8----5----1----4-|
|-10----8----6---8/-10-10-10---10---8----6----3----3-|
|-10----6----6---6/--8--8--8---10---6----6----3----5-|
|--8---------4------------------8--------4----1----3-|

  Gtr II  (keyboard tabbed for gtr)
   TP    TP TP    TP TP     TP TP
|------------------------------------|
|---8----11--8----11--8-----11--8----|
|------------------------------------|
|------------------------------------|2nd time
|------------------------------------|
|------------------------------------|

 Prechorus
|-----------------------------------|
|-----------------------------------|
|--8--8--8--8--8-7-----------------|
|-10-10-10-10-10-8---8--8--8--8-5-|
|--------------------10-10-10-10-6-|
|-----------------------------------|

|--------------------------------------|
|--------------------------------------|
|--8--8--8--8--8--8--------------------|
|-10-10-10--8--8--8---8--8--8-5--5-5--|
|--------------------10-10-10-6--6-6--|
|--------------------------------------|

Verse     *            *
|-----------------10---10-------8---|
|---------11---------8---------------|
|----8-------8-----------------------|
|-10---10------10----------6-6-------|
|------------------------------------|
|------------------------------------|
  {------------PM--------------------|
          *            *
|-----------------10---10------10---|
|---------11---------8---------------|
|----8-------8-----------------------|
|-10---10------10--------------------|
|-------------------------10-10------|
|------------------------------------|
  {------------PM--------------------|

|--8----6----4------------------8---6----4----1----3-|
|--8----8----4------------------8---8----4----1----3-|
|--8----8----5---8/-10-10-10----8---8----5----1----4-|
|-10----8----6---8/-10-10-10---10---8----6----3----3-|
|-10----6----6---6/--8--8--8---10---6----6----3----5-|
|--8---------4------------------8--------4----1----3-|

|-----------------------------------|
|-----------------------------------|
|--8--8--8--8--8-7-----------------|
|-10-10-10-10-10-8---8--8--8--8-5-|
|--------------------10-10-10-10-6-|
|-----------------------------------|

|--------------------------------------|
|--------------------------------------|
|--8--8--8--8--8--8--------------------|
|-10-10-10--8--8--8---8--8--8-5--5-5--|
|--------------------10-10-10-6--6-6--|
|--------------------------------------|
          *            *
|-----------------10---10-------8---|
|---------11---------8---------------|
|----8-------8-----------------------|
|-10---10------10----------6-6-------|
|------------------------------------|
|------------------------------------|
  {------------PM--------------------|     play 2nd time
          *            *
|-----------------10---10------10---|
|---------11---------8---------------|
|----8-------8-----------------------|
|-10---10------10--------------------|
|-------------------------10-10------|
|------------------------------------|
  {------------PM--------------------|

 Bridge
|------------------------------------------------------|
|------------------------------------------------------|
|-------------------------x-x-5--7b8-5--7b8r7-5--7b8-5~|
|------------------------------------------------------|
|------------------------------------------------------|
|-4--x6--3--x3--4-x6--3------------------------------|

 Breakdown
|------------------------------------|
|------------------------------10-10-|
|------------------------------10-10-|
|----------5-5-----------5-x-x-10-10-|
|-3-1-1-3--6-6--3-1-1-3--6-x-x-8--8--|
|------------------------------------|

|----------------------------|
|---------------------9--9---|
|--------------------10-10---|
|----------5-5-------10-10---|
|-3-1-1-3--6-6--3/5---8--8---|
|---------------4/6----------|

|--8----6----4------------------8---6----4----1----3-|
|--8----8----4------------------8---8----4----1----3-|
|--8----8----5---8/-10-10-10----8---8----5----1----4-|
|-10----8----6---8/-10-10-10---10---8----6----3----3-|
|-10----6----6---6/--8--8--8---10---6----6----3----5-|
|--8---------4------------------8--------4----1----3-|

|-----------------------------------|
|-----------------------------------|
|--8--8--8--8--8-7-----------------|
|-10-10-10-10-10-8---8--8--8--8-5-|
|--------------------10-10-10-10-6-|
|-----------------------------------|

|--------------------------------------|
|--------------------------------------|
|--8--8--8--8--8--8--------------------|
|-10-10-10--8--8--8---8--8--8-5--5-5--|
|--------------------10-10-10-6--6-6--|
|--------------------------------------|

Love hurts

Light Grenades

Standard Tuning (EADGbe)

Intro/Chorus: [light distortion]

e|---------------------------------------------------------------5---5-55/-8-----8--8-8--|
b|---0--0--0------------7---7--8--5----5------0--0--0------------5---5-55/-8-----8--8-8--|
G|------0---------7-----7---7--7--5----5---------0---------7-----6---6-66/-9-----9--9-9--|
D|------5-----------0---7---------5------5-------5-----------0---7---7-77/-10----10-1010-|
A|-7---(7)------5--(5)--5-5-------3--3------7---(7)------5--(5)--7-7-7-55/-10-10-10-1010-|
E|------------7----------------------------------------7---------5-5-5-55/-8--8--8--8-8--|

Verse:

tonight we drink to youth
and holding fast the truth
don't want to lose what i had as a boy
my heart still has a beat
but love is now a feat
as common as a cold day in L.A.


Prechorus:


Chords:

Amin    Cmaj     Dmaj
 -5-     -8--     -10-|
 -5-     -8--     -10-|
 -5-     -9--     -11-|         {I realize you can play these chords elsewhere, this is where
 -7-     -10-     -12-|          they are played in the song!}
 -7-     -10-     -12-|
 -5-     -8--     -10-|

    Amin
sometimes when I'm alone I wonder

Cmaj
is there a spell that I am under

Amin                       Cmaj      Dmaj
keeping me from seeing the real thing


Chorus: {Same as intro}

love hurts
but sometimes it's a good hurt
and it feels like I'm alive
love sings
when it transcends the bad things
out of heartache, try me
cause without love I won't survive

Verse:

tethered and abused
stand naked and accused
should I surface, this one man submarine
I only want the truth
so tonight we drink to youth
I never lose what I had as a boy


Prechourus


Chorus/bridge

Chorus: [Acoustic]

Emin Bmin
love hurts

    Dmaj             Amin
but sometimes it's a good hurt

       Emin      Bmin   Amaj   Cmaj
and it feels like I'm alive


---------------------------------------------------------------------------------------------------------|
Love Hurts V.2

Tuning: Standard

*This is the acoustic version. The CD version is played differently*

Intro:
Slight distortion and reverb
e|--------------------------------------|--------------------------------|
B|---8----------------------------------|---8----------------------------|
G|---0-------11-----11-11-12---9--9--10-|---0-------11-----6-6-6-9--9---|
D|--9-9------x------x--x--x----x--x--x--|--9-9------x------x-x-x--x--x---|2x
A|-7-------12--12---12-12-12---10-10-10-|-7-------12--12---7-7-7-10-10--|
E|-------10---------10-10-10---8--8--8--|-------10---------5-5-5-8--8---|


Verse 1:
e|--------------------------------------|--------------------------------|
B|---8----------------------------------|---8----------------------------|
G|---0-------11-----11-11-12---9--9--10-|---0-------11-----6-6-6-9--9---|
D|--9-9-------------x--x--x----x--x--x--|--9-9-------------x-x-x--x--x---|4x
A|-7-------12--12---12-12-12---10-10-10-|-7-------12--12---7-7-7-10-10--|
E|-------10---------10-10-10---8--8--8--|-------10---------5-5-5-8--8---|


Interlude:
e|--------------------|----------------------|-------------------------|
B|--7-7-7-7-7-7-7-7-7-|----------------------|-------------------------|
G|--x-x-x-x-x-x-x-x-x-|-11-11-11-11-11-11-11-|-9--9--9--9--9--9--9--9--|
D|--9-9-9-9-9-9-9-9-9-|-x--x--x--x--x--x--x--|-x--x--x--x--x--x--x--x--|
A|--7-7-7-7-7-7-7-7-7-|-12-12-12-12-12-12-12-|-10-10-10-10-10-10-10-10-|
E|--------------------|-10-10-10-10-10-10-10-|-8--8--8--8--8--8--8--8--|

e|----------------------------|
B|----------------------------|
G|-11-11-11-11-11-11-11-11-11-| (figure out strumming pattern and frequency.
D|-x--x--x--x--x--x--x--x--x--|  These chords may or may not be accurate)
A|-12-12-12-12-12-12-12-12-12-|
E|-10-10-10-10-10-10-10-10-10-|

Chorus:
e|--------------------------------------|--------------------------------|
B|---8----------------------------------|---8----------------------------|
G|---0-------11-----11-11-12---9--9--10-|---0-------11-----6-6-6-9--9---|
D|--9-9-------------x--x--x----x--x--x--|--9-9-------------x-x-x--x--x---|2x
A|-7-------12--12---12-12-12---10-10-10-|-7-------12--12---7-7-7-10-10--|
E|-------10---------10-10-10---8--8--8--|-------10---------5-5-5-8--8---|


Verse 2:
e|--------------------------------------|--------------------------------|
B|---8----------------------------------|---8----------------------------|
G|---0-------11-----11-11-12---9--9--10-|---0-------11-----6-6-6-9--9---|
D|--9-9-------------x--x--x----x--x--x--|--9-9-------------x-x-x--x--x---|4x
A|-7-------12--12---12-12-12---10-10-10-|-7-------12--12---7-7-7-10-10--|
E|-------10---------10-10-10---8--8--8--|-------10---------5-5-5-8--8---|


Chorus:
e|--------------------------------------|--------------------------------|
B|---8----------------------------------|---8----------------------------|
G|---0-------11-----11-11-12---9--9--10-|---0-------11-----6-6-6-9--9---|
D|--9-9-------------x--x--x----x--x--x--|--9-9-------------x-x-x--x--x---|2x
A|-7-------12--12---12-12-12---10-10-10-|-7-------12--12---7-7-7-10-10--|
E|-------10---------10-10-10---8--8--8--|-------10---------5-5-5-8--8---|


Solo:(with interlude chords played behind)

e|----------10----10----10----12---12----12-12---12-----------------|
B|-11~-12-12---12----12---------15---15-------15--------------------|
G|--------------------------------------------------12~-------------|
D|------------------------------------------------------------------|
A|------------------------------------------------------------------|
E|------------------------------------------------------------------|

e|----------10----10----10---12---12---15-15-15p12------------------|
B|-11~-12-12---12----12--------15---15-------------12---------------|
G|---------------------------------------------------12-------------|
D|------------------------------------------------------------------|
A|------------------------------------------------------------------|
E|------------------------------------------------------------------|

e|------------------------------------------------------------------|
B|------------------------------------------------------------------|
G|---------------------12-------------------------------------------|
D|-14---14/12---1214-----14----14/12---1214-----------------12-12-|
A|--------------------------------------------14--14/12-1214-------|
E|------------------------------------------------------------------|

e|--------------------------------------------------------------------------------|
B|--------------------------------------------------------------------------------|
G|----------------------------------------------------------------------|
D|-14---------------------------------------------------------|
A|--------------------------------------------------------------------------------|
E|--------------------------------------------------------------------------------|


Chorus:
e|--------------------------------------|--------------------------------|
B|---8----------------------------------|---8----------------------------|
G|---0-------11-----11-11-12---9--9--10-|---0-------11-----6-6-6-9--9---|
D|--9-9-------------x--x--x----x--x--x--|--9-9-------------x-x-x--x--x---|2x
A|-7-------12--12---12-12-12---10-10-10-|-7-------12--12---7-7-7-10-10--|
E|-------10---------10-10-10---8--8--8--|-------10---------5-5-5-8--8---|



LIGHT GRENADES


Gtr I (E A D G B E) - 'Lead 1'
Gtr II (E A D G B E) - 'Lead 2'
Gtr III (E A D G B E) - 'Clean'

   Intro
    Q=239
    N.C.                     Gb5   N.C.
   4/4
    Gtr I
    E E E Q  E E E   E E E E E E E E   E E E Q  E  E   E
||-----------------|-----------------|--------------------|
||o----------------|-----------------|--------------------|
||-----------------|-----------------|--------------------|
||-----------------|---------4-4-4---|------------(3)p(0)-|
||o-5-3p0----0-3p0-|-6p0-3p0-4-4-4-0-|-5-3p0----0--3p==0--|
||--------4--------|---------2-2-2---|-------4------------|
|
|   Gtr II
|   W                W                 W
||-----------------|-----------------|--------------------|
||o----------------|-----------------|--------------------|
||-----------------|-----------------|--------------------|
||-----------------|-----------------|--------------------|
||o----------------|-----------------|--------------------|
||-----------------|-----------------|--------------------|


 1.                     2.
       Ab7
   E E E E E E E  E      E E  E  E E E q
|---------------------||--------------------|
|------4-4-4-4-4-----o||-4-4--4--4-4-4-4----|
|------5-5-5-5-5------||-5-5--5--5-5-5-5----|
|-(4)--4-4-4-4-4------||-4-4--4--4-4-4-4----|
|--6p0-6-6-6-6-6-(0)-o||-6-6--6--6-6-6-6----|
|------4-4-4-4-4------||-4-4--4--4-4-4-4----|
|
|                             <
|  W                     Q    H.
|---------------------||--------------------|
|--------------------o||-----[4]------------|
|---------------------||--------------------|
|---------------------||--------------------|
|--------------------o||--------------------|
|---------------------||--------------------|


    N.C.                     Gb5   N.C.
    E E E Q  E E E   E E E E E E E  E
||-----------------|-------------------|
||o----------------|-------------------|
||-----------------|-------------------|
||-----------------|---------4-4-4-----|
||o-5-3p0----0-3p0-|-6p0-3p0-4-4-4-(0)-|
||--------4--------|---------2-2-2-----|


                  1.                 2.
                   Ab7
  E E E Q  E E E   E E E E E E q      E E E E E E E E
|----------------|-----------------||------------------||
|----------------|---4-4-4-4-4-4--o||------------------||
|----------------|---5-5-5-5-5-5---||-5-5-5-5-5-5-x----||
|----------------|-4-4-4-4-4-4-4---||-4-4-4-4-4-4-x-6--||
|-5-3p0----0-3p0-|-6-6-6-6-6-6-6--o||-6-6-6-6-6-6-x----||
|-------4--------|-4-4-4-4-4-4-4---||-4-4-4-4-4-4-x----||


   Verse
    N.C.                                                              Fm7
    +E  E E E Q  E E   E E E E Q  E E   E E E E Q  E E   E E E E Q  E  E
||-------------------|----------------|----------------|-----------------|
||o-----------7------|---------7------|---------7------|---------7-----9-|
||-------------------|----------------|----------------|---------------8-|
||--(6)-4-x-x----x-4h|=6p4-x-x----x-4h|=6p4-x-x----x-4h|=6p4-x-x----x-10-|
||o------------------|----------------|----------------|---------------8-|
||-------------------|----------------|----------------|-----------------|


                              E7+9          N.C.
   +E   E  E  E  E  E  E  E   E E E E E E E E
|---------------------------|-----------------|
|--(9)--9--9--9--9--9--9--9-|-8-8-8-8-8-8-x---|
|--(8)--8--8--8--8--8--8--8-|-7-7-7-7-7-7-x---|
|-(10)-10-10-10-10-10-10-10-|-6-6-6-6-6-6-x-6-|
|--(8)--8--8--8--8--8--8--8-|-7-7-7-7-7-7-x---|
|---------------------------|-----------------|


  +E  E E E Q  E E   E E E E Q  E E
|------------------|------------------|
|-----------7------|---------7--------|
|------------------|------------------|
|-(6)-4-x-x----x-4h|=6p4-x-x----x-4h==|
|------------------|------------------|
|------------------|------------------|


                                Fm7
  E E E E Q  E E   E E E E Q  E  E    +E   E  E  E  E  E  E  E
|----------------|-----------------|---------------------------|
|---------7------|---------7-----9-|--(9)--9--9--9--9--9--9--9-|
|----------------|---------------8-|--(8)--8--8--8--8--8--8--8-|
|-6p4-x-x----x-4h|=6p4-x-x----x-10-|-(10)-10-10-10-10-10-10-10-|
|----------------|---------------8-|--(8)--8--8--8--8--8--8--8-|
|----------------|-----------------|---------------------------|


  E7+9          Fm7                              E7+9          Ab7
  E E E E E E E  E    +E   E  E  E  E  E  E  E   E E E E E E E E
|------------------|---------------------------|---------------4-||
|-8-8-8-8-8-8-8--9-|--(9)--9--9--9--9--9--9--9-|-8-8-8-8-8-x-x-4-||
|-7-7-7-7-7-7-7--8-|--(8)--8--8--8--8--8--8--8-|-7-7-7-7-7-x-x-5-||
|-6-6-6-6-6-6-6-10-|-(10)-10-10-10-10-10-10-10-|-6-6-6-6-6-x-x-4-||
|-7-7-7-7-7-7-7--8-|--(8)--8--8--8--8--8--8--8-|-7-7-7-7-7-x-x-6-||
|------------------|---------------------------|---------------4-||


 horus
                 G7                 E7                 Eb7                Ab7
  +E  E Q  E E E E   +E  E Q  E E E E   +E  E Q  E E E E   +E  E E E Q  E E
|-(4)-4-4--4-4-4-3-|-(3)-3-3--3-3-3-0-|-(0)-0-0--0-0-0-3-|-(3)-3-3-3-3--3-4--|
|-(4)-4-4--4-4-4-3-|-(3)-3-3--3-3-3-0-|-(0)-0-0--0-0-0-2-|-(2)-2-2-2-2--2-4--|
|-(5)-5-5--5-5-5-4-|-(4)-4-4--4-4-4-1-|-(1)-1-1--1-1-1-3-|-(3)-3-3-3-3--3-5--|
|-(4)-4-4--4-4-4-3-|-(3)-3-3--3-3-3-0-|-(0)-0-0--0-0-0-1-|-(1)-1-1-1-1--1-4--|
|-(6)-6-6--6-6-6-5-|-(5)-5-5--5-5-5-2-|-(2)-2-2--2-2-2---|----------------6--|
|-(4)-4-4--4-4-4-3-|-(3)-3-3--3-3-3-0-|-(0)-0-0--0-0-0---|----------------4--|


                                       1.
                 G7                 E7            N.C.
  +E  E Q  E E E E   +E  E Q  E E E E   +E  E E E Q  Q    Q  Q  Q  E E
|-(4)-4-4--4-4-4-3-|-(3)-3-3--3-3-3-0-|-(0)-0-0-0-------|---------------||
|-(4)-4-4--4-4-4-3-|-(3)-3-3--3-3-3-0-|-(0)-0-0-0-x--x--|-x--x--x-------||
|-(5)-5-5--5-5-5-4-|-(4)-4-4--4-4-4-1-|-(1)-1-1-1-x--x--|-x--x--x-------||
|-(4)-4-4--4-4-4-3-|-(3)-3-3--3-3-3-0-|-(0)-0-0-0-x--x--|-x--x--x-------||
|-(6)-6-6--6-6-6-5-|-(5)-5-5--5-5-5-2-|-(2)-2-2-2-------|----------0----||
|-(4)-4-4--4-4-4-3-|-(3)-3-3--3-3-3-0-|-(0)-0-0-0-------|----------0-4--||


 Bridge
  N.C.
  +E  E Q  Q  E E   +E  E Q  E E E E   +e  E Q  Q  E E   +E  E Q  E E E E
|-----------------|------------------|-----------------|--------------------||
|-----------------|------------------|-----------------|-------------------o||
|-----------------|------------------|-----------------|--------------------||
|-----------------|------------------|-----------------|----------------6---||
|-----------------|----------x-x-----|----------x--x---|-------------------o||
|-(4)-2-4--x----4-|-(4)-2-4--x-x-2-4-|-(4)-2-4--x--x-4-|-(4)-2-4--x-x-x-----||


 Chorus Extended (first note tied)
  2.
  E7                         Ab7               G7
   Q   E Q  Q.     H.      E E   +E  E Q  Q  E E
|-(0)--0-0-------|-----------4-|-(4)-4-4--4--4-3-|
|-(0)--0-0-------|---------x-4-|-(4)-4-4--4--4-3-|
|-(1)--1-1-------|---------x-5-|-(5)-5-5--5--5-4-|
|-(0)--0-0-------|---------x-4-|-(4)-4-4--4--4-3-|
|-(2)--2-2-------|---------x-6-|-(6)-6-6--6--6-5-|
|-(0)--0-0-------|-----------4-|-(4)-4-4--4--4-3-|


                E7                Eb7
  +E  E Q  Q  E E   +E  E Q  Q  E E
|-(3)-3-3--3--3-0-|-(0)-0-0--0--0-3---|
|-(3)-3-3--3--3-0-|-(0)-0-0--0--0-2---|
|-(4)-4-4--4--4-1-|-(1)-1-1--1--1-3---|
|-(3)-3-3--3--3-0-|-(0)-0-0--0--0-1---|
|-(5)-5-5--5--5-2-|-(2)-2-2--2--2-----|
|-(3)-3-3--3--3-0-|-(0)-0-0--0--0-----|


                 Ab7               G7
  +E  E E E Q  E E   +E  E Q  Q  E E
|-(3)-3-3-3-3--3-4-|-(4)-4-4--4--4-3-|
|-(2)-2-2-2-2--2-4-|-(4)-4-4--4--4-3-|
|-(3)-3-3-3-3--3-5-|-(5)-5-5--5--5-4-|
|-(1)-1-1-1-1--1-4-|-(4)-4-4--4--4-3-|
|----------------6-|-(6)-6-6--6--6-5-|
|----------------4-|-(4)-4-4--4--4-3-|


                E7
  +E  E Q  Q  E E   +Q   E Q  Q.     W
|-(3)-3-3--3--3-0-|-(0)--0-0-------|------||
|-(3)-3-3--3--3-0-|-(0)--0-0-------|------||
|-(4)-4-4--4--4-1-|-(1)--1-1-------|------||
|-(3)-3-3--3--3-0-|-(0)--0-0-------|------||
|-(5)-5-5--5--5-2-|-(2)--2-2-------|------||
|-(3)-3-3--3--3-0-|-(0)--0-0-------|------||


   Bridge
    N.C.
    PM----------------------------------------------------------------|
    e e e q  e e e   e e e e e e e e   e e e q  e e e   e e e e e e e e
||-----------------|-----------------|----------------|------------------||
||o----------------|-----------------|----------------|-----------------o||
||-----------------|-----------------|----------------|------------------||
||-----------------|-----------------|----------------|------------------||
||o-5-3-0----0-3-0-|-6-0-3-0-6-0-3-0-|-5-3-0----0-3-0-|-6-0-3-0-6-0-3-0-o||
||--------4--------|-----------------|-------4--------|------------------||


 uitar Solo
  N.C.
   PM------------------------------------------------------
   e  e  e  q           e  e  e    e  e  e  e  e  e  e  e
|-------------------------------|-------------------------|
|-------------------------------|-------------------------|
|-------------------------------|-------------------------|
|-------------------------------|-------------------------|
|--5--3--0--------------0--3--0-|--6--0--3--0--6--0--3--0-|
|-----------4-------------------|-------------------------|
|
| Gtr II
|                   TP
|  E  E  E  E      +E   E  E  E    E  E  E  E  E  E  E  E
|-------------------------13-14-|-15-14-13----14-13-------|
|----------17b19==(17)r16-------|----------16-------16-15-|
|-------------------------------|-------------------------|
|-16h18p16----------------------|-------------------------|
|-------------------------------|-------------------------|
|-------------------------------|-------------------------|


 ------------------------------------------------------|
   e  e  e  q           e  e  e    e  e  e  e  e  e  e e
|-------------------------------|-------------------------|
|-------------------------------|-------------------------|
|-------------------------------|-------------------------|
|-------------------------------|-------------------------|
|--5--3--0--------------0--3--0-|--6--0--3--0--6--0--3-0--|
|-----------4-------------------|-------------------------|
|
|                   TP
|  E  E  E  E      +E   E  E  E    E  E  E  E  E  E  Q
|-------------------------------|-------------------------|
|----------17b19==(17)r16-15-16-|-15-15-15-15-15-15-15----|
|-------------------------------|-------------------------|
|-16h18p16----------------------|-------------------------|
|-------------------------------|-------------------------|
|-------------------------------|-------------------------|


   PM------------------------------------------------------
   e  e  e  q           e  e  e    e  e  e  e  e  e  e  e
|-------------------------------|-------------------------|
|-------------------------------|-------------------------|
|-------------------------------|-------------------------|
|-------------------------------|-------------------------|
|--5--3--0--------------0--3--0-|--6--0--3--0--6--0--3--0-|
|-----------4-------------------|-------------------------|
|
|                   TP
|  E  E  E  E      +E   E  E  E    E  E  E  E  E  E  E  E
|-------------------------13-14-|-15-14-13----14-13-------|
|----------17b19==(17)r16-------|----------16-------16-15-|
|-------------------------------|-------------------------|
|-16h18p16----------------------|-------------------------|
|-------------------------------|-------------------------|
|-------------------------------|-------------------------|


 ------------------------------------------------------|
   e  e  e  q                 e   e e   e  e e e e e e e
|-------------------------------------|------------------|
|-------------------------------------|------------------|
|-------------------------------------|------------------|
|-------------------------------------|------------------|
|--5--3--0--------------------0---3-0-|-6--0-3-0-6-0-3-0-|
|-----------4-------------------------|------------------|
|
|                                       TP
|  E  E  E  E      +S   +S    E   Q     W
|----------14-----(14)-(14)-(14)------|------------------|
|----------17b19==(17)r(17)s=16--15---|------------------|
|-------------------------------------|------------------|
|-16h18p16----------------------------|-x/---------------|
|-------------------------------------|-x/---------------|
|-------------------------------------|-x/---------------|


   E E E Q      E E E     E  E E E E E   E  E
|---------------------|-----------------------|
|---------------------|-----------------------|
|---------------------|-----------------------|
|---------------------|-----------------------|
|--5-3-0--------0-3-0-|---6--0-3-0-6-0---3--0-|
|--------4------------|-----------------------|
|
|  TP        TP           TP             TP
|  H         H           +H.             Q
|---------------------|-----------------------|
|---------------------|-----------------12----|
|-11--------11--------|-(11)------------11----|
|-10-------(10)-------|-(10)-----------(10)---|
|--9---------9--------|--(9)-------------9----|
|---------------------|-----------------------|


    E  E   E  Q      E E E     E  E   E  E   E  E   E  E
|--------------------------|------------------------------|
|--------------------------|------------------------------|
|--------------------------|------------------------------|
|--------------------------|------------------------------|
|---5--3---0---------0-3-0-|---6--0---3--0---6--0---3--0--|
|-------------4------------|------------------------------|
|
|   TP     TP     TP           TP     TP     TP
|   Q      Q      H           +Q      Q      Q     +Q
|--------------------------|------------------------------|
|---------12---------------|---------12-------------------|
|--11-----11-----11--------|-(11)----11-----11----(11)----|
|-(10)---(10)---(10)-------|-(10)---(10)---(10)---(10)----|
|---9------9------9--------|--(9)-----9------9-----(9)----|
|--------------------------|------------------------------|


   E   E E  Q    E  E   E     E  E   E E  E   E E  E
|-------------------------|----------------------------|
|-------------------------|----------------------------|
|-------------------------|----------------------------|
|-------------------------|----------------------------|
|--5---3-0-------0--3---0-|---6--0---3-0--6---0-3--0---|
|-----------4-------------|----------------------------|
|
|  7/      /7     7/          /7      7/      /7
|  Q.       Q.      Q        +E  Q.       Q.       E
|-------------------------|----------------------------|
|-------------------------|----------------------------|
|-11-------11------11-----|-(11)-x-------11-------11---|
|-------------------------|------x---------------------|
|--9--------9-------9-----|--(9)-x--------9--------9---|
|-------------------------|----------------------------|


                           E7+9                       Ab7
                                                      Gtr III
    E  E  E   Q  E   E E    E    E   E   E   E   E  E E
|------------------------|----------------------------4--||
|------------------------|-(8)--(8)-(8)-(8)-(8)-(8)-x-4--||
|------------------------|--7----7---7---7---7---7--x-5--||
|------------------------|--6----6---6---6---6---6--x-4--||
|---5--3--0------0---3-0-|--7----7---7---7---7---7--x-6--||
|-------------4----------|----------------------------4--||
|
|         7/    /7        7/
|  +Q     Q.     Q.         H                E   Q    E
|------------------------|-------------------------------||
|------------------------|-------------------------------||
|-(11)---11------x-------|-11----------------x---x-------||
|----------------x-------|-------------------x---x-------||
|--(9)----9------x-------|--9----------------x---x-------||
|------------------------|-------------------------------||


 Pre-Chorus
                 G7                 E7                 Eb7                Ab7
  +E  E E E Q  E E   +E  E E E Q  E E   +E  E E E Q  E E   +E  E E E Q  E E
|-(4)-4-4-4-4--x-3-|-(3)-3-3-3-3--x-0-|-(0)-0-0-0-0--x-3-|-(3)-3-3-3-3--3-4--|
|-(4)-4-4-4-4--x-3-|-(3)-3-3-3-3--x-0-|-(0)-0-0-0-0--x-2-|-(2)-2-2-2-2--2-4--|
|-(5)-5-5-5-5--x-4-|-(4)-4-4-4-4--x-1-|-(1)-1-1-1-1--x-3-|-(3)-3-3-3-3--3-5--|
|-(4)-4-4-4-4--x-3-|-(3)-3-3-3-3--x-0-|-(0)-0-0-0-0--x-1-|-(1)-1-1-1-1--1-4--|
|-(6)-6-6-6-6--x-5-|-(5)-5-5-5-5--x-2-|-(2)-2-2-2-2--x---|----------------6--|
|-(4)-4-4-4-4--x-3-|-(3)-3-3-3-3--x-0-|-(0)-0-0-0-0--x---|----------------4--|


                 G7                 E7
  +E  E E E Q  E E   +E  E E E Q  E E
|-(4)-4-4-4-4--x-3-|-(3)-3-3-3-3--x-0-|
|-(4)-4-4-4-4--x-3-|-(3)-3-3-3-3--x-0-|
|-(5)-5-5-5-5--x-4-|-(4)-4-4-4-4--x-1-|
|-(4)-4-4-4-4--x-3-|-(3)-3-3-3-3--x-0-|
|-(6)-6-6-6-6--x-5-|-(5)-5-5-5-5--x-2-|
|-(4)-4-4-4-4--x-3-|-(3)-3-3-3-3--x-0-|
|
| Gtr II
|  W                  W
|------------------|------------------|
|------------------|------------------|
|------------------|------------------|
|------------------|------------------|
|------------------|------------------|
|------------------|------------------|


                                           Ab7
                                         Gtr I
  +Q   E Q  Q.      H.                   E E
|-(0)--0-0-------|-------------------------4--||
|-(0)--0-0-------|-----------------------x-4--||
|-(1)--1-1-------|-----------------------x-5--||
|-(0)--0-0-------|-----------------------x-4--||
|-(2)--2-2-------|-----------------------x-6--||
|-(0)--0-0-------|-------------------------4--||
|
|  W                E      +Q.    +E  Q.
|----------------|----------------------------||
|----------------|--9------(9)----(9)---------||
|----------------|-11b13==(11)---(11)r========||
|----------------|----------------------------||
|----------------|----------------------------||
|----------------|----------------------------||


   Out-Chorus
                   G7                 E7
    +E  E E E Q  E E   +E  E E E Q  E E
||--(4)-4-4-4-4--4-3-|-(3)-3-3-3-3--3-0-|
||o-(4)-4-4-4-4--4-3-|-(3)-3-3-3-3--3-0-|
||--(5)-5-5-5-5--5-4-|-(4)-4-4-4-4--4-1-|
||--(4)-4-4-4-4--4-3-|-(3)-3-3-3-3--3-0-|
||o-(6)-6-6-6-6--6-5-|-(5)-5-5-5-5--5-2-|
||--(4)-4-4-4-4--4-3-|-(3)-3-3-3-3--3-0-|
|
|   Gtr II
|    W                  W
||-------------------|------------------|
||o------------------|------------------|
||-------------------|------------------|
||-------------------|------------------|
||o------------------|------------------|
||-------------------|------------------|


                 Eb7                Ab7
  +E  E E E Q  E E   +E  E E E Q  E E
|-(0)-0-0-0-0--0-3-|-(3)-3-3-3-3--3-4--||
|-(0)-0-0-0-0--0-2-|-(2)-2-2-2-2--2-4-o||
|-(1)-1-1-1-1--1-3-|-(3)-3-3-3-3--3-5--||
|-(0)-0-0-0-0--0-1-|-(1)-1-1-1-1--1-4--||
|-(2)-2-2-2-2--2---|----------------6-o||
|-(0)-0-0-0-0--0---|----------------4--||
|
|  W                  H.          E E
|------------------|-------------------||
|------------------|------------------o||
|------------------|-------------------||
|------------------|-------------------||
|------------------|------------------o||
|------------------|----------------4--||


   Outro
                    G7                  E7
    +E  E E E Q   E E   +E  E E E Q   E E
||--(4)-4-4-4-4---4-3-|-(3)-3-3-3-3---3-0-|
||o-(4)-4-4-4-4---4-3-|-(3)-3-3-3-3---3-0-|
||--(5)-5-5-5-5---5-4-|-(4)-4-4-4-4---4-1-|
||--(4)-4-4-4-4---4-3-|-(3)-3-3-3-3---3-0-|
||o-(6)-6-6-6-6---6-5-|-(5)-5-5-5-5---5-2-|
||--(4)-4-4-4-4---4-3-|-(3)-3-3-3-3---3-0-|
|
|   +E  E E E E E E E   +E  E E E E E E E
||--------------------|-------------------|
||o-------------------|-------------------|
||--------------------|-------------------|
||--------------------|-------------------|
||o-------------------|-------------------|
||--(4)-4-4-4-4-4-4-3-|-(3)-3-3-3-3-3-3-0-|


                  Eb7                 Ab7
  +E  E E E Q   E E   +E  E E E Q   E E
|-(0)-0-0-0-0---0-3-|-(3)-3-3-3-3---3-4--||
|-(0)-0-0-0-0---0-2-|-(2)-2-2-2-2---2-4-o||
|-(1)-1-1-1-1---1-3-|-(3)-3-3-3-3---3-5--||
|-(0)-0-0-0-0---0-1-|-(1)-1-1-1-1---1-4--||
|-(2)-2-2-2-2---2---|-----------------6-o||
|-(0)-0-0-0-0---0---|-----------------4--||
|
| +E  E E E E E E E   +E  E E E E E E E
|-------------------|--------------------||
|-------------------|-------------------o||
|-------------------|--------------------||
|-------------------|--------------------||
|-----------------6-|-(6)-6-6-6-6-6-6---o||
|-(0)-0-0-0-0-0-0---|-----------------4--||


                  G7                E7                Eb7
    E E E E E E E E   E E E E E E E E   E E E E E E E E
||--4-4-4-4-4-4-4-3-|-3-3-3-3-3-3-3-0-|-0-0-0-0-0-0-0-3-|
||o-4-4-4-4-4-4-4-3-|-3-3-3-3-3-3-3-0-|-0-0-0-0-0-0-0-2-|
||--5-5-5-5-5-5-5-4-|-4-4-4-4-4-4-4-1-|-1-1-1-1-1-1-1-3-|
||--4-4-4-4-4-4-4-3-|-3-3-3-3-3-3-3-0-|-0-0-0-0-0-0-0-1-|
||o-6-6-6-6-6-6-6-5-|-5-5-5-5-5-5-5-2-|-2-2-2-2-2-2-2---|
||--4-4-4-4-4-4-4-3-|-3-3-3-3-3-3-3-0-|-0-0-0-0-0-0-0---|


 1.                  2.
                Ab7   Eb7
  E E E E E E E E     E E E E E E E E
|-3-3-3-3-3-3-3-4--||-3-3-3-3-3-3-3-3--||
|-2-2-2-2-2-2-2-4-o||-2-2-2-2-2-2-2-2--||
|-3-3-3-3-3-3-3-5--||-3-3-3-3-3-3-3-3--||
|-1-1-1-1-1-1-1-4--||-1-1-1-1-1-1-1-1--||
|---------------6-o||------------------||
|---------------4--||------------------||


 Brandon Scream Of Death
  N.C.                     Gb5   N.C.
  E E E Q  E E E   E E E E E E E E
|----------------|-----------------|
|----------------|-----------------|
|----------------|-----------------|
|----------------|---------4-4-4---|
|-5-3p0----0-3p0-|-6p0-3p0-4-4-4-0-|
|-------4--------|---------2-2-2---|


                       Ab7           N.C.
  E E E Q  E E E   E E E E E E E E   Wx2
|----------------|-----4-4-4-4-4-4-|--------*|
|----------------|-----4-4-4-4-4-4-|--------*|
|----------------|-----5-5-5-5-5-5-|--------*|
|----------------|-----4-4-4-4-4-4-|--------*|
|-5-3p0----0-3p0-|-6p0-6-6-6-6-6-6-|--------*|
|-------4--------|-----4-4-4-4-4-4-|--------*|

Duration Legend
---------------
W - whole; H - half; Q - quarter; E - 8th; S - 16th; T - 32nd; X - 64th; a - acciaccatura
+ - note tied to previous; . - note dotted; .. - note double dotted
Uncapitalized letters represent notes that are staccato (1/2 duration)
Irregular groupings are notated above the duration line
Duration letters will always appear directly above the note/fret number it represents the
duration for.  Duration letters with no fret number below them represent rests.  Multi-
bar rests are notated in the form Wxn, where n is the number of bars to rest for.  Low
melody durations appear below the staff

Tablature Legend
----------------
 h   - hammer-on
 p   - pull-off
 b   - bend
 pb  - pre-bend
 r   - bend release (if no number after the r, then release immediately)
 /  - slide into or out of (from/to "nowhere")
 s   - legato slide
 S   - shift slide
 - natural harmonic
[n]  - artificial harmonic
n(n) - tapped harmonic
 ~   - vibrato
 tr  - trill
 T   - tap
 TP  - trem. picking
 PM  - palm muting
n/  - tremolo bar dip; n = amount to dip
 n  - tremolo bar down
 n/  - tremolo bar up
/n  - tremolo bar inverted dip
 =   - hold bend; also acts as connecting device for hammers/pulls
  - volume swell (louder/softer)
 x   - on rhythm slash represents muted slash
 o   - on rhythm slash represents single note slash

Misc Legend
-----------
 |  - bar
||  - double bar
||o - repeat start
o|| - repeat end
*|  - double bar (ending)
 :  - bar (freetime)
 $  - Segno
 &  - Coda
Tempo markers -  = BPM(8/16=s8/s16), where s8 = swing 8ths, s16 = swing 16ths


Incubus - Earth To Bella Part 1

Standard Tuning (EADGbe)

Intro/verse: [Acoustic]

Chords:

Cmaj    Amin    Emaj     E7
 -0-     -0-     -0-     -0-|
 -1-     -1-     -0-     -0-|
 -0-     -2-     -1-     -1-|
 -2-     -2-     -2-     -0-|
 -3-     -0-     -2-     -2-|
 ---     ---     -0-     -0-|


Cmaj            Amin
Earth to Bella

Cmaj                        Amin
you think you've got it all figured in

Cmaj           Amin
Earth to Bella

Cmaj            Amin   Emaj
everything you know is wrong

              E7   Cmaj
well, almost

                 Amin
Earth to Bella

Cmaj                  Amin
i see where you are not listening

Cmaj               Amin
I bear the burden

Cmaj               Amin      Emaj
of being the voice that lets you know


we all grow old

       E7
and before you swim you've gotta be ok

Cmaj
to say


{Use power chords for the wah wah distortion part using the same chords}

e|----------------------------------------------------------------------------|
b|----------------------------------------------------------------------------|
G|-5---5---5----2-2-----5---5---5---2-2-2-2-----------------------------------|
D|-5---5---5----2-2-----5---5---5---2-2-2-2-----------------------------------|
A|-3---3---3----0-0-----3---3---3---0-0-0-0-----------------------------------|
E|----------------------------------------------------------------------------|


Cmaj           Amin
Earth to Bella

Cmaj                   Amin
The world can be an unfriendly place

Cmaj                 Amin
so hold your head up

Cmaj                    Emaj
do your best to save some face


its not so hard

                                 E7
just undo yourself and see the second sun

    Cmaj
and say


Chorus:

Ok to sink , I'm Ok to sink


Ok to sink

Outro: [Acoustic] {play this as soon as the distortion of the chorus stops}

e|---------------------------0-------0----0-------0-------------------------------|
b|-1-------1----1-------1------1-------1----1-------1-----------------------------|
G|---0-------0----0-------0------2------------2-----------------------------------|
D|-----2------------0--------3-----3------3-----3---------------------------------|
A|-3-----3------2-----2-----------------------------------------------------------|
E|--------------------------------------------------------------------------------|

Then play this until fade:

e|---------------------------0-------0----0-------0-------------------------------|
b|-1-------1----1-------1------1-------1----1-------1-----------------------------|
G|---0-------0----0-------0------2------------2-----------------------------------|
D|-----2------------2--------3-----3------3-----3---------------------------------|
A|-3-----3------3-----3-----------------------------------------------------------|
E|--------------------------------------------------------------------------------|


Oil And Water

(Intro)
Figure 1 Play 1X
e---------------77-|
B------------------|
G----7--7-9--9-----|
D-999-9999999999---|
A------------------|
E------------------|

(Verse)              (Verse End)
Figure 2 4X          Figure 3 1X
e---------------77   ---------------7-|let ring
B-----------------   -----------------|
G-7--7--7-9--9----   -7--7--7-9--9----|
D-99999999999999--   -99999999999999--|
A-----------------   -----------------|
E-----------------   -----------------|
"You and/ I are/ Like oil and Water/ And we've been..."

(Verse and Chorus)
Figure 4 3X   Figure 5 1X  Figure 4 2X  Figure 6 Play 1X
e--------7--  -------10-  -------7--   -7--7--7-----10--|
B-----8---8-  -----8----  -----8--8-   -----------8---8-|
G--9-9-9----  --9-9-9---  --9-9-8---   --10-10-9-9-9----|
D-9-9-------  -9-9------  -9-9------   -----------------|
A-----------  ----------  ----------   -----------------|
E-----------  ----------  ----------   -----------------|
"...trying,/  trying,/    trying,/     oh,/to mix it up"

Verse (Figure 3 this time) 6X
"We've been/dancing/on a volcano/and we've been..."

(Chorus)
Figure 7 1X
e-7--3--7--3--7--3--------|  *You can use power chords
B-9--5--9--5--9--5--8---3-|  *Here as well, but these
G-9--5--9--5--9--5--10--5-|  *chords are more more complete
D-9--5--9--5--9--5--10--5-|
A-7--3--7--3--7--3--8---3-|  *Here a second guitar comes in
E-7--3--7--3--7--3--8---3-|  *and plays figures 4 thru 6
 8x 8x 8x 8x 8x 8x 7x 8x    *as a counter-melody

"crying,/crying,/crying,/oh oh/over blackened souls"

(Post-Chorus)
Figure 8 1X
e--------- ------ ------ -----------------|
B--------- ------ ------ -----------------|
G--slower- -slow -slow-- -faster----------|
D-5-7-9-3- 7-9-2- 7-9-1- -3-5-7-8-5-8-7-5-|
A--------- ------ ------ -----------------|
E--------- ------ ------ -----------------|
"Babe, This/Wouldn't be the first time/
Will not be the last time/
There is no parasol/ that can shelter this weather"

Verse (Figure 3 4X)
"I've been/ smiling/ with anchors on my shoulders/
but I've been..."

Chorus (Guitar 1 Figure 4(3X),5(1X),4(2X),6(1X)and Guitar 2 Figure 7 1X)
"dying/ dying/ dy/ing/ ohh,ohh,ohh/ to let them go"

Post-Chorus (Figure 8 2X)
"Babe, This/ Wouldn't be the first time/
It will not be the last time/
There is no parasol/ that can shelter this weather/
Babe, This/ Wouldn't be the first time/
It will not be the last time/
We were trying to believe/ everything would/
get better!"

(Bridge)
Figure 9  1X
e------------------|
B------------------|
G-12--11--10--7----|
D-12--11--10--7--3-|
A-10--9---8---5--3-|
E-10--9---8---5--1-|
(16X 16X 16X 8X 8X)

Verse (Figure 3 4X clean, then 4X light distortion) and...

Figure 10 (1X In background, during clean verse)
e---------  ---------|
B-9-8-6-5-  -9-8-6-5-|
G-8-7-5-4-  -9-8-6-5-|
D-9-8-6-5-  -9-8-6-5-|
A---------  ---------|
E---------  ---------|
"We been/ lying/ to each other/Hey! Babe!/

Chorus (Guitar 1 plays figures 4-6, Guitar 2 plays Figure 7 1X)
"Let's just/ Call it/ Call it/ ohhh/ what it is!/

(Ending)
Figure 11
e--- ---------- ---------- ---------- ----------|
B--- ---------- ---------- ---------- ----------|
G--- ---------- ---------- ---------- ----------|
D-5- -7-9-10-5- -7-9-10-5- -7-9-10-5- -7-9-10-5-|
A--- ---------- ---------- ---------- ----------|
E--- ---------- ---------- ---------- ----------|
"Oil and Water!/Oil and Water!/Oil and Water!"



Diamonds And Coal


[Intro]
e|----------------------------------|--[piano]--|---|
b|----------------------------------|8~-6~-5~---|---|
g|----------------------------------|---------7~|---|
d|--------7----7-----7----7---------|-----------|---|
a|----4-5--------4-5--------4-5-----|-----------|---|
E|----------5~---------5~-------5~--|-----------|---|

[Pre-Verse]
e|---------------------------------------------------------------------|
b|---------------------------------------------------------------------|
g|---------------------------------------------------------------------|
d|------------------7-7-6-6-4-4-6-6------------------------------------|
a|----7-7-7-7-7-7-7-5-5-4-4-2-2-4-4/--5-5-5-5-5-5-5-5-5-5-5-5-5-5-5-5--|
E|----5-5-5-5-5-5-5-------------------3-3-3-3-3-3-3-3-3-3-3-3-3-3-3-3--|
      * * * * * * * * * * * * * *     * *   * * *   * * * *   *   *
[Verse]
e|---------------------------------------------------------------------|
b|---------------------------------------------------------------------|
g|---------------------------------------------------------------------|
d|------------------7-7-6-6-4-4-6-6------------------------------------|
a|----7-7-7-7-7-7-7-5-5-4-4-2-2-4-4/--5-5-5-5-5-5-5-5-5-5-5-5-5-5-5-7--|
E|----5-5-5-5-5-5-5-------------------3-3-3-3-3-3-3-3-3-3-3-3-3-3-3-5--|
        * * * * * * * * * * * * *     * *   * * *   * * * *   *   *

[Chorus]
e|---------------------------------------------------------------------|
b|---------------------------------------------------------------------|
g|---------------------------------------------------------------------|
d|------------------7-7-6-6-4-4-6-6---5-5-5-5-5-5-5-5-5-5-5-5-5-5-5-5--|
a|----7-7-7-7-7-7-7-5-5-4-4-2-2-4-4/--5-5-5-5-5-5-5-5-5-5-5-5-5-5-5-5--|
E|----5-5-5-5-5-5-5-------------------3-3-3-3-3-3-3-3-3-3-3-3-3-3-3-3--|
      * * * * * * * * * * * * * *     * *   * * *   * * * *   *   *
e|---------------------------------------------------|---------------|
b|---------------------------------------------------|-----1st-------|
g|---------------------------------------------------|--Chorus-Only--|
d|------------------7-7-6-6-4-4-6-6---5-5-5-5-5-5-5-5|5-5-5-5-5-5-5-5|
a|----7-7-7-7-7-7-7-5-5-4-4-2-2-4-4/--5-5-5-5-5-5-5-5|5-5-5-5-5-5-5-5|
E|----5-5-5-5-5-5-5-------------------3-3-3-3-3-3-3-3|3-3-3-3-3-3-3-3|
      * * * * * * * * * * * * * *
e|---------------------|
b|--2nd-&-Final----|
g|----Chorus-----------|
d|2-2-2-2-2-2-2-2------|
a|2-2-2-2-2-2-2-2------|
e|0-0-0-0-0-0-0-0------|

[Bridge A]
e|---------------------------------------------------------------------|
b|---------------------------------------------------------------------|
g|---------------------------------------------------------------------|
d|---------------------------------------------------------------------|
a|----14-16-14-16-14-16-14----14-16-14-16-14-16-14----12-14-12-14-12-14|
E|---------------------------------------------------------------------|

e|---------------------------------------------------------------------|
b|---------------------------------------------------------------------|
g|---------------------------------------------------------------------|
d|---------------------------------------------------------------------|
a|-12----12-14-12-14-12-14-12------------------------------------------|
E|---------------------------------------------------------------------|

[Bridge B]
e|----------------------------------|--[piano]--|---|
b|----------------------------------|8~-6~-5~---|---|
g|----------------------------------|---------7~|---|
d|--------7----7-----7----7---------|-----------|---|
a|----4-5--------4-5--------4-5-----|---Not-3rd-|---|
E|----------5~---------5~-------5~--|-----Time--|---|

[Bridge C]
e|----------------------------------|
b|----------------------------------|
g|----------------------------------|
d|--------5----5-----5----5---------|
a|----2-3--------2-3--------2-3-----|
E|----------3~---------3~-------3~--|

[Bridge D]
e|-------------------------------------------------------------------------|
b|-------------------------------------------------------------------------|
g|-------------------------------------------------------------------------|
d|--------3----3-----3-----------------------------------------------------|
a|----0-1--------0-1-----3-1-0---------------------------------------------|
E|----------1~---------1-------3-1-0-0-0-0-0-0-0-0-0-0-0-0-0-0-0-----------|

[Solo]
e|-------------------------------------------------------------------------|
b|-------------------------------------------------------------------------|
g|----14-14-14-14-14-14-14-14-14-14-14-14-14-14-14-14-12-12-12-12-12-12-12-|
d|-------------------------------------------------------------------------|
a|----------------------------------------------------14-12-14-12-14-12-12-|
E|-------------------------------------------------------------------------|

e|-------------------------------------------------------------------------|
b|-------------------------------------------------------------------------|
g|-12-12-12-12-12-12-12-12-14-16-14-16-14-16-14----14-16-14-16-14-16-14----|
d|-------------------------------------------------------------------------|
a|-12-14-12-14-12-14-12-12-------------------------------------------------|
E|-------------------------------------------------------------------------|

[Outro]
e|-------------------------------------------------------------------------|
b|-------------------------------------------------------------------------|
g|-------------------------------------------------------------------------|
d|--------7----7-----5----5------------------------------------------------|
a|----4-5--------2-3--------0-1--------------------------------------------|
E|----------5~---------3~-------1-0~---------------------------------------|

Play Order
[Intro] x2
[Pre-Verse]
[Verse] x4
[Chorus]
[Verse] x4
[Chorus]
[Bridge A]
[Bridge B] x3
[Bridge C]
[Bridge D]
[Solo]
[Chorus]
[Bridge A] x2
[Outro]



Rogues

This songs one of my favourites from the new album. I know this tab isn't
100%, but I'm pretty sure it's close enough. Have fun!


Tuning: Standard

Intro X2 - Clean

e|----------------------------------------------------------------------|
B|----------------------------------------------------------------------|
G|----------------------------------------------------------------------|
D|-----0-----0-----0-----0-----0-------0-----0-----0-----0-----0--------|
A|---0-----0-----0-----0-----0---0---0-----0-----0-----0-----0---0------|
E|-2----/8-----8-----8-----8------/12----14----14----14----14-----------|

e|----------------------------------------------------------------------|
B|----------------------------------------------------------------------|
G|----------------------------------------------------------------------|
D|-----0-----0-----0-----0-----0-------0-----0-----0-----0-----0--------|
A|---0-----0-----0-----0-----0---0---0-----0-----0-----0-----0---0------|
E|-2----/8-----8-----8-----8------/12----12----10----10----10-----------|

Verse X2 - Dirty
X3
e|--------------------------------|
B|--------------------------------|
G|---------------------------2----|
D|--------------------------------|
A|-2-2--02-5---22220022-5---------|
E|------------------------------5-|

e|--------------------------------|
B|--------------------------------|
G|--------------------------------|
D|--------------------------------|
A|-2-2--02-5---555555555555555----|
E|--------------------------------|

Pre-Chorus - Slighty Dirty
     X2
e|------------------------------------------------------------------|
B|--(9)-9-9-XX-9-9---8-8-8-XX-8-8---7-7-7-XX-7-7---7-7-7-XX-7-7-----|
G|--(7)-7-7-XX-7-7---7-7-7-XX-7-7---4-4-4-XX-4-4---4-4-4-XX-4-4-----|
D|--(9)-9-9-XX-9-9---9-9-9-XX-9-9---4-4-4-XX-4-4---4-4-4-XX-4-4-----|
A|------------------------------------------------------------------|
E|------------------------------------------------------------------|

e|------------------------------------------------------------------|
B|----9-9-9-XX-9-9---8-8-8-XX-8-8---7-7-7-XX-7-7---6-6-6-XX-6-6-----|
G|----7-7-7-XX-7-7---7-7-7-XX-7-7---4-4-4-XX-4-4---4-4-4-XX-4-4-----|
D|----9 9-9-XX-9-9---9-9-9-XX-9-9---4-4-4-XX-4-4---5-5-5-XX-5-5-----|
A|------------------------------------------------------------------|
E|------------------------------------------------------------------|

e|----X-X-X----X-X---X-X-X----X-X---X-X-X----X-X---X-X-X----X-X-X-X-|
B|----5-5-5-XX-5-5---5-5-5-XX-5-5---7-7-7-XX-7-7---7-7-7-XX-7-7-7-7-|
G|----6-6-6-XX-6-6---6-6-6-XX-6-6---8-8-8-XX-8-8---7-7-7-XX-7-7-7-7-|
D|----6-6-6-XX-6-6---6-6-6-XX-6-6---8-8-8-XX-8-8---7-7-7-XX-7-7-7-7-|
A|----4-4-4----4-4---4-4-4----4-4---6-6-6----6-6---5-5-5----5-5-5-5-|
E|----4-4-4----4-4---4-4-4----4-4---6-6-6----6-6---5-5-5----5-5-5-5-|

Chorus - Dirty
  X4
e|---X--X--X--X--X--X---X--X--X--X--X--X----------------------------------|
B|---8--8--8--8--8--8---7--7--7--7--7--7----------------------------------|
G|--(7)(7)(7)(7)(7)(7)-(7)(7)(7)(7)(7)(7)--7--7-7---------7--7-7----------|
D|---9--9--9--9--9--11--9--9--9--9--9--11--7--7-7---------7--7-7----------|
A|---7--7--7--7--7--7---7--7--7--7--7--7---5--5-5-/9-9-9--5--5-5-/9-9-9---|
E|---7--7--7--7--7--7---7--7--7--7--7--7---5--5-5---------5--5-5----------|
  |_____________________________|
X2 on fourth repeat
Verse - Dirty
X3
e|--------------------------------|
B|--------------------------------|
G|---------------------------2----|
D|--------------------------------|
A|-2-2--02-5---22220022-5---------|
E|------------------------------5-|

e|--------------------------------|
B|--------------------------------|
G|--------------------------------|
D|--------------------------------|
A|-2-2--02-5---555555555555555----|
E|--------------------------------|

Pre-Chorus - Slighty Dirty
    X2
e|------------------------------------------------------------------|
B|--(9)-9-9-XX-9-9---8-8-8-XX-8-8---7-7-7-XX-7-7---7-7-7-XX-7-7-----|
G|--(7)-7-7-XX-7-7---7-7-7-XX-7-7---4-4-4-XX-4-4---4-4-4-XX-4-4-----|
D|--(9)-9-9-XX-9-9---9-9-9-XX-9-9---4-4-4-XX-4-4---4-4-4-XX-4-4-----|
A|------------------------------------------------------------------|
E|------------------------------------------------------------------|

e|------------------------------------------------------------------|
B|----9-9-9-XX-9-9---8-8-8-XX-8-8---7-7-7-XX-7-7---6-6-6-XX-6-6-----|
G|----7-7-7-XX-7-7---7-7-7-XX-7-7---4-4-4-XX-4-4---4-4-4-XX-4-4-----|
D|----9 9-9-XX-9-9---9-9-9-XX-9-9---4-4-4-XX-4-4---5-5-5-XX-5-5-----|
A|------------------------------------------------------------------|
E|------------------------------------------------------------------|

e|----X-X-X----X-X---X-X-X----X-X---X-X-X----X-X---X-X-X----X-X-X-X-|
B|----5-5-5-XX-5-5---5-5-5-XX-5-5---7-7-7-XX-7-7---7-7-7-XX-7-7-7-7-|
G|----6-6-6-XX-6-6---6-6-6-XX-6-6---8-8-8-XX-8-8---7-7-7-XX-7-7-7-7-|
D|----6-6-6-XX-6-6---6-6-6-XX-6-6---8-8-8-XX-8-8---7-7-7-XX-7-7-7-7-|
A|----4-4-4----4-4---4-4-4----4-4---6-6-6----6-6---5-5-5----5-5-5-5-|
E|----4-4-4----4-4---4-4-4----4-4---6-6-6----6-6---5-5-5----5-5-5-5-|

Chorus - Dirty
  X4
e|---X--X--X--X--X--X---X--X--X--X--X--X----------------------------------|
B|---8--8--8--8--8--8---7--7--7--7--7--7----------------------------------|
G|--(7)(7)(7)(7)(7)(7)-(7)(7)(7)(7)(7)(7)--7--7-7---------7--7-7----------|
D|---9--9--9--9--9--11--9--9--9--9--9--11--7--7-7---------7--7-7----------|
A|---7--7--7--7--7--7---7--7--7--7--7--7---5--5-5-/9-9-9--5--5-5-/9-9-9---|
E|---7--7--7--7--7--7---7--7--7--7--7--7---5--5-5---------5--5-5----------|
  |_____________________________|
X2 on fourth repeat
Solo - Dirty

e|-----------------------------9b10b9-7-10-7---------------------|
B|------7---9b10b9-7-9-7---7---------------------9-9b10b9-----9--|
G|---------------------------------------------7----------7------|
D|---/9---9-------------/9---9--------------/8--------------8----|
A|---------------------------------------------------------------|
E|---------------------------------------------------------------|

  (Play around here, I really have no idea what Mike's doing)
e|---------10b11b10-7-10(16)(16)(16)(16)(16)(15)(15)(15)(15)(15)-|
B|-------9--------------/12--15--12--15--12--15--12--15--12--15--|
G|-----7---------------------------------------------------------|
D|---8-----------------------------------------------------------|
A|---------------------------------------------------------------|
E|---------------------------------------------------------------|

      | Some kind of Wah effect starts here
e|---------------------9------9---9-----/14--------------/16---/16----16-----|
B|------------8----8-----8------8---8----------15---15-----------------------|
G|-----7-9-10---10---10----10------------------------------------------------|
D|---8--------------------------------------12----12---12----12----12----12--|
A|---------------------------------------------------------------------------|
E|---------------------------------------------------------------------------|

Weird Bends | Wah Effect Ends
e|--13-13-13-13-13-13-13-13--12/11-11/10-10-10--15b16b15---|
B|----------------------------------------------12-12-12---|
G|----------------------------------------------------------|
D|----------------------------------------------------------|
A|----------------------------------------------------------|
E|----------------------------------------------------------|


For the scratching part, just do a mute on all the strings around the 12th
fret and move your hand up the board at the end of every bar.


Chorus - Dirty
  X4
e|---X--X--X--X--X--X---X--X--X--X--X--X----------------------------------|
B|---8--8--8--8--8--8---7--7--7--7--7--7----------------------------------|
G|--(7)(7)(7)(7)(7)(7)-(7)(7)(7)(7)(7)(7)--7--7-7---------7--7-7----------|
D|---9--9--9--9--9--11--9--9--9--9--9--11--7--7-7---------7--7-7----------|
A|---7--7--7--7--7--7---7--7--7--7--7--7---5--5-5-/9-9-9--5--5-5-/9-9-9---|
E|---7--7--7--7--7--7---7--7--7--7--7--7---5--5-5---------5--5-5----------|
  |_____________________________|
 X2 on fourth repeat and 2 extra 9's

| /  slide up
|   slide down
| h  hammer-on
| p  pull-off
| ~  vibrato
| +  harmonic
| x  Mute note
===============================================================================


Paper Shoes

Standard Tuning (EADGbe)

Intro/verse: [Acoustic] {Finger picking}

e|--------------------------------------------------------------------------------|
b|-3-----3-------3------3-------3------3-------3-----3-------3--------------------|
G|---0-----0-------0-------0-------0-----0-------0-----0-------0------------------|
D|-----0-----0-------0-------0-------0-----0-------0-----0-------0----------------|
A|-3-----2-----2--------1---

ĂŽnscrie-te la newsletter


Join the ranks ! LIKE us on Facebook