Keep Breathing Tab - Ingrid Michaelson






Ingrid Michaelson
Keep Breathing

Standerd tuning

Verse                      
E -------------------------------------------------------------------|
B -------------------------------------------------------------------|
G ----4---4---2---2---5---5---0---0---0---0---0---0---0---0---0---0--|
D ---0---0---0---0---2---2---0---0---0---0---0---0---0---0---0---0---|
A ------------------------------0---2---2---2---2---3---3---3---3----|
E --3---3---3---3---3---3---3----------------------------------------|

chorus
E -------------------------------------------------------------------|
B -------------------------------------------------------------------|
G ----0---0---0---0---0---0---0---0---0---0---0---0---0---0---0---0--|
D ---0---0---0---0---0---0---0---0---0---0---0---0---0---0---0---0---|
A --2---2---3---3---5---5---5---5---2---2---3---3---5---5---5---5----|
E -------------------------------------------------------------------|

This is my first time posting tab, so Im sorry for any slips.
This is the whole song, the chorus length in the song differs a bit.
Just listen to it to get the changes right, thx

CEDERVII






Like us on Facebook