Lady In Spain Tab - Ingrid Michaelson






Tabbed by: Kaija
E-mail: kaja.rose@gmail.com

So I couldn't find any tabs for this song, so I tabbed it myself.
I believe they are at least 98% correct. It sounds exactly like the song.

Standard Tuning
Capo 6

Intro:
e|---------------------------------------------------------------------------|
B|---1-1----1-----1-1----1---------------------------------------------------|
G|---0-0----0-----0-0----0---------------------------------------------------|
D|---------------------------------------------------------------------------|
A|-3------3-----3------3-----------------------------------------------------|
E|---------------------------------------------------------------------------|
Verse:
I am a lady in Spain           I'll sing a haunting refrain
e|-----------------3-3----3-3------------------1-1----1-1--------------------|
B|---1-1----1-1----1-1----1-1----1-1----1-1----1-1----1-1--------------------|
G|---0-0----0-0----0-0----0-0----0-0----0-0----2-2----2-2--------------------|
D|-------------------------------------------3------3------------------------|
A|-3------3------2------2------0------0--------------------------------------|
E|---------------------------------------------------------------------------|
I am a lady from Mars.         And I can unscrew stars
e|-----------------3-3----3-3------------------1-1----1-1--------------------|
B|---1-1----1-1----1-1----1-1----1-1----1-1----1-1----1-1--------------------|
G|---0-0----0-0----0-0----0-0----0-0----0-0----2-2----2-2--------------------|
D|-------------------------------------------3------3------------------------|
A|-3------3------2------2------0------0--------------------------------------|
E|---------------------------------------------------------------------------|

Chorus:
   I can be                             Anything that I see
e|---------------------------------------1-1----1-1--------------------------|
B|--1-1----1-1----1-1----1-1-------------1-1----1-1----0-0---0-0-------------|
G|--0-0----0-0----0-0----0-0-------------2-2----2-2----0-0---0-0-------------|
D|-------------------------------------3------3------------------------------|
A|-2-----2------0------0------0--2--3----------------------------------------|
E|---------------------------------------------------3-----3-----------------|

  I can be                            Anything that I, anything that I see
e|---------------------------------------1-1----1-1--------------------------|
B|--1-1----1-1----1-1----1-1-------------1-1----1-1----0-0---0-0-------------|
G|--0-0----0-0----0-0----0-0-------------2-2----2-2----0-0---0-0-------------|
D|-------------------------------------3------3------------------------------|
A|-2-----2------0------0------0--2--3----------------------------------------|
E|---------------------------------------------------3-----3-----------------|

e|-----------------1-1-------------------------------------------------------|
B|---1-1----1-1----1-1----0-0------------------------------------------------|
G|---0-0----0-0----2-2----0-0------------------------------------------------|
D|---------------3-----------------------------------------------------------|
A|-2------0------------------------------------------------------------------|
E|----------------------3----------------------------------------------------|


Verse:
   I am in love with a boy        Manufactured to destroy
e|-----------------3-3----3-3------------------1-1----1-1--------------------|
B|---1-1----1-1----1-1----1-1----1-1----1-1----1-1----1-1--------------------|
G|---0-0----0-0----0-0----0-0----0-0----0-0----2-2----2-2--------------------|
D|-------------------------------------------3------3------------------------|
A|-3------3------2------2------0------0--------------------------------------|
E|---------------------------------------------------------------------------|
   So I shall unravel my love  Just like an old red woolen glove
e|-----------------3-3----3-3------------------1-1----1-1--------------------|
B|---1-1----1-1----1-1----1-1----1-1----1-1----1-1----1-1--------------------|
G|---0-0----0-0----0-0----0-0----0-0----0-0----2-2----2-2--------------------|
D|-------------------------------------------3------3------------------------|
A|-3------3------2------2------0------0--------------------------------------|
E|---------------------------------------------------------------------------|


Chorus:
   I can do                           Anything I want to
e|---------------------------------------1-1----1-1--------------------------|
B|--1-1----1-1----1-1----1-1-------------1-1----1-1----0-0---0-0-------------|
G|--0-0----0-0----0-0----0-0-------------2-2----2-2----0-0---0-0-------------|
D|-------------------------------------3------3------------------------------|
A|-2-----2------0------0------0--2--3----------------------------------------|
E|---------------------------------------------------3-----3-----------------|
   I can do                           Anything I want, Anything my heart
e|---------------------------------------1-1----1-1--------------------------|
B|--1-1----1-1----1-1----1-1-------------1-1----1-1----0-0---0-0-------------|
G|--0-0----0-0----0-0----0-0-------------2-2----2-2----0-0---0-0-------------|
D|-------------------------------------3------3------------------------------|
A|-2-----2------0------0------0--2--3----------------------------------------|
E|---------------------------------------------------3-----3-----------------|
Tells me to do, tells me to do, Tells me to do
e|-----------------1-1-------------------------------------------------------|
B|---1-1----1-1----1-1----0-0------------------------------------------------|
G|---0-0----0-0----2-2----0-0------------------------------------------------|x3
D|---------------3-----------------------------------------------------------|
A|-2------0------------------------------------------------------------------|
E|----------------------3----------------------------------------------------|
Bridge:
Da da dum....
e|-----------------1-1-------------------------------------------------------|
B|---1-1----1-1----1-1----0-0------------------------------------------------|
G|---0-0----0-0----2-2----0-0------------------------------------------------|
D|---------------3-----------------------------------------------------------|
A|-2------0------------------------------------------------------------------|
E|----------------------3----------------------------------------------------|
(voice trumpet. Yes, Ingrid is THAT talented)
e|---------------------------------------1-1----1-1--------------------------|
B|--1-1----1-1----1-1----1-1-------------1-1----1-1----0-0---0-0-------------|
G|--0-0----0-0----0-0----0-0-------------2-2----2-2----0-0---0-0-------------|
D|-------------------------------------3------3------------------------------|
A|-2-----2------0------0------0--2--3----------------------------------------|
E|---------------------------------------------------3-----3-----------------|


Chorus:
  I can do                            Anything I want to
e|---------------------------------------1-1----1-1--------------------------|
B|--1-1----1-1----1-1----1-1-------------1-1----1-1----0-0---0-0-------------|
G|--0-0----0-0----0-0----0-0-------------2-2----2-2----0-0---0-0-------------|
D|-------------------------------------3------3------------------------------|
A|-2-----2------0------0------0--2--3----------------------------------------|
E|---------------------------------------------------3-----3-----------------|
   I can be                            Anything that I see
e|---------------------------------------1-1----1-1--------------------------|
B|--1-1----1-1----1-1----1-1-------------1-1----1-1----0-0---0-0-------------|
G|--0-0----0-0----0-0----0-0-------------2-2----2-2----0-0---0-0-------------|
D|-------------------------------------3------3------------------------------|
A|-2-----2------0------0------0--2--3----------------------------------------|
E|---------------------------------------------------3-----3-----------------|
   I can do                            Anything I want to
e|---------------------------------------1-1----1-1--------------------------|
B|--1-1----1-1----1-1----1-1-------------1-1----1-1----0-0---0-0-------------|
G|--0-0----0-0----0-0----0-0-------------2-2----2-2----0-0---0-0-------------|
D|-------------------------------------3------3------------------------------|
A|-2-----2------0------0------0--2--3----------------------------------------|
E|---------------------------------------------------3-----3-----------------|
   I can be                            Anything that I see
e|---------------------------------------1-1----1-1--------------------------|
B|--1-1----1-1----1-1----1-1-------------1-1----1-1----0-0---0-0-------------|
G|--0-0----0-0----0-0----0-0-------------2-2----2-2----0-0---0-0-------------|
D|-------------------------------------3------3------------------------------|
A|-2-----2------0------0------0--2--3----------------------------------------|
E|---------------------------------------------------3-----3-----------------|
           (Instead of standard G, you will do the 320022 G for the second to last chord)
e|-----------------1-1----3-3------------------------------------------------|
B|---1-1----1-1----1-1----3-3--1---------------------------------------------|
G|---0-0----0-0----2-2----0-0--0---------------------------------------------|
D|---------------3-------------2---------------------------------------------|
A|-2------0--------------------3---------------------------------------------|
E|----------------------3----------------------------------------------------|






Like us on Facebook