The Way I Am (ver3) Tab - Ingrid Michaelson






THE WAY I AM
As recorded by Ingrid Michaelson
(From the 2007 Album GIRLS AND BOYS)

          F                  Bb/F                 Dm/A
      1 3 3 2 1 1          1 1 3 3 3 1          5 5 7 7 6 5

          C                   Asus4
    8 10 10 9 8 8           5 5 7 7 5 5

          Bb                  Csus4                Bsus4
      6 8 8 7 6 6         8 8 10 10 8 8         7 7 9 9 7 7

          C#                    D
    9 11 11 10 9 9      10 12 12 11 10 10

Standard Tuning (E A D G B E)
4/4

INTRO (1st Verse)
|-----------|-----------|-----------|------------|
|-----------|-----------|-----------|------------|
|-----------|-----------|-----------|------------|
|-----------|-----------|-----------|------------|
|-----------|-1---1-----|-5---5-----|-3---3------|
|-1---1-----|-----------|-----------|---------0--|


|-----------|-----------|-----------|--------------|
|-----------|-----------|-----------|--------------|
|-----------|-----------|-----------|--------------|
|-----------|-----------|-----------|--------------|
|-----------|-1---1-----|-5---5-----|-3---3--------|
|-1---1-----|-----------|-----------|---------0----|

1st CHORUS
|------------|------------|------------|------------|
|------------|------------|------------|------------|
|------------|------------|------------|------------|
|------------|---------2--|-3---3---2--|-0---0------|
|-1---1---5--|-3---3------|------------|---------3--|
|------------|------------|------------|------------|


|------------|----------|-----------|-----------|
|------------|----------|-----------|-----------|
|------------|----------|-----------|-----------|
|------------|----------|-----------|-----------|
|-1---1---3--|-4--------|-----------|-----------|
|------------|----------|-1---1-----|-1---1-----|



If you were falling

then I would catch you

you need a light

I'll find a match

cause I love the way you say good morning 

and you take me the way I am

F     Bb/F
If you are chilly 
Dm     C
here take my sweater
F     Bb/F
you're head is aching
Dm     C
I'll make it better

Bb      C        Csus4 Bsus4      Asus4
cause I love the way you call me baby
Bb      C#       Csus4    F
and u take me the way I am

F     Bb/F
I'd buy you Rogaine
Dm     C
when you start losing all your hair
F     Bb/F
sew on patches 
Dm     C
to all you tear

Bb      C        Csus4 Bsus4      Asus4
cause I love you more than I could ever promise 
Bb      C#       Csus4    D    C
and you take me the way I am 
Bb      C#           D
you take me the way I am
Bb      C#       Csus4    F
   you take me the way I am






Like us on Facebook