The Way I Am (ver4) Tab - Ingrid Michaelson






intro
E-1-1--------------0----------------------|
 -----1-1------3-3------------------------|
 ----------0-0----------------------------|
 -----------------------------------------|
 -----------------------------------------|
e-----------------------------------------|

1st Verse x2

E-1-1--------------0----------------------|
 -----1-1------3-3------------------------|
 ----------0-0----------------------------|
 -----------------------------------------|
 -----------------------------------------|
e-----------------------------------------|

Chorus

E-----------1-1-------------1-1-1-1-------|
 -1-1--3-3----------3-1-1-3---------------|
 ---------------0-0-----------------------|
 -----------------------------------------|
 -----------------------------------------|
e-----------------------------------------|






Like us on Facebook