A Call To The Faithful Intro Tab - Inhale Exhale






Alex Dawe

       Drop C

Mute :

       Intro to A Call to the Faithful
 D--------------------------------------------|
 A--------------------------------------------|
 F--------------------------------------------|
 C-0-0-0--------------------------------------|
 G-0-0-0-6-3-5--------------------------------|
 C-0-0-0-------3-0-3-5------------------------|

 D--------------------------------------------|
 A--------------------------------------------|
 F--------------------------------------------|
 C-0-0-0-----3-5------------------------------|
 G-0-0-0-6-3-3-5------------------------------|
 C-0-0-0-----3-5------------------------------|

play this 3 times.






Like us on Facebook