Knowledge Priceless Intro Tab - Inhale Exhale






-------------------------------------------------------------------------------
     Knowledge=Priceless - Inhale, Exhale
-------------------------------------------------------------------------------
Tabbed by:James003
Email:x.punk4life@yahoo.com

Tuning: Standard

I listened to this song carefully by ear and I was only able to transcribe the intro so
bear with me. it sounds good to me

e|-------------------------------------------------------------------------------------|
B|-------------------------------------------------------------------------------------|
G|-------0---0----0----0-------0----0---0-----0---- --0-----0-----0-----0--------------|
D|-----0---8---8-----8------0-----8---8----8------0-----10----10----10-----------------|
A|-------------------------------------------------------------------------------------|
E|-------------------------------------------------------------------------------------|

e|----------------------------------------------------------------------------|
B|----------------------------------------------------------------------------|
G|------0------0------0-------0---------0-----0------0-----0------0-----0-----|
D|--0------10-----10------10--------0------8------8------8-----0------8-------|
A|----------------------------------------------------------------------------|
E|----------------------------------------------------------------------------|

e|-------------------------------------------------------------------|
B|-------------------------------------------------------------------|
G|-------0--------0--------------------------------------------------|
D|---8--------8-----------0--3----0---3------------0--3----0-3-------|
A|--------------------1--------1---------1--3---0-------0------0--3--|
E|-------------------------------------------------------------------|


repeat intro throughout verses. i'll try to get find out the chorus and bridge, possibly 
solo. thanks :)






Like us on Facebook