Lost The Sick The Sacred Intro Tab - Inhale Exhale






Sorry. Maybe I should acually look these over before sending.

Standard Tuning
Clean (maybe a little reverb)

e-----------------0---0----1-1-0----|
B-1---1---1---1---------------------|
G-----------------------------------|
D---------------------------------3-|
A-1-1---1---1------3---3------------|
E-----------------------------------|

e-------------------0---0-----3-0h1p0-0-|
B-1---1---1---1-------------------------|
G---------------------------------------|
D---------------------------------------|
A---1---1---1---------3---3-------------|
E---------------------------------------|

Hope you like it






Like us on Facebook