Elysium Dream Intro ver2 Tab - INTO ETERNITY






* tune guitar down to C *

** this is the beginning clean intro. It is played with distortion at the end of the 
as well. There is a second guitar that harmonizes this riff, which is played by Rob. **

ELYSIUM DREAM


---12-----8---10-----------------------------------7--3----8--7----- ----7--|
--------------------------10-----------------------------5-------8----8-----|
----------------------9----------------5---4------------------------9-------|
----------------------------------7-----------------------------------------|
-------------------------------5--------------------------------------------|
----------------------------------------------------------------------------|


-12-----8---10---------------------------------7---3-----8--7---------7------|
-------------------------10-----------------------------5------8---8---------|
---------------------9--------------------5---4------------------9-----------|
--------------------------------------7--------------------------------------|
---------------------------------5-------------------------------------------|
-----------------------------------------------------------------------------|


-------------------------------------------------7---3------8---7--------7--|
---------------------------------------------------------5---------8---8----|
---------------------------------------5---4-------------------------9------|
----------------------------------7-----------------------------------------|
---7---3---5---------------5------------------------------------------------|
-----------------3---5------------------------------------------------------|


---12-----8---10---------------------------------7---3------8---7---------7-|
--------------------------10-----------------------------5--------8----8----|
----------------------9-------------------5---4---------------------9-------|
--------------------------------------7-------------------------------------|
---------------------------------5------------------------------------------|
----------------------------------------------------------------------------|






Like us on Facebook