Nothing Tab - INTO ETERNITY






I got this from tim roth (the guitarist) himself. I only know the intro, verse, and
so if you know anything else i dont put in, email me at
Thisgodlessendvr@aol.com
The Song Nothing, is from their new album The Scattering Of Ashes.
This is also my first tab so im trying, but i know all of it is right.


Intro: 0:00-0:04

E|-----------------------------------------------------------|
B|-----------------------------------------------------------|
G|12---------10-----8-------6--------------------------------|
D|--10-----8----8----6----4---4------------------------------|
A|----8--6-------6----4--2-----2-----------------------------|
E|-----------------------------------------------------------|

Play Twice


Into Part 2: 0:04-0:25
E|-----------------------------------------------------------|
B|-----------------------------------------------------------|
G|----------------------------16-----------------------------|
D|-------------------------14--------------------------------|
A|---------s12----------12-----------------------s12---------|
E|0000-----------0000----------------0000--------------------|

E|-----------------------------------------------------------|
B|-----------------------------------------------------------|
G|12---------10----------------------------------------------|
D|--10-----8----8~-------------------------------------------|
A|----8--6---------------------------------------------------|
E|-----------------------------------------------------------|

E|-----------------------------------------------------------|
B|-----------------------------------------------------------|
G|---------------------------16------------------------------|
D|------------------------14---------------------------------|
A|--------s12----------12-----------------------s12----------|
E|0000-----------0000----------------0000--------------------|

E|-----------------------------------------------------------|
B|-----------------------------------------------------------|
G|12---------10-----8-------6--------------------------------|
D|--10-----8----8----6----4---4------------------------------|
A|----8--6-------6----4--2-----2-----------------------------|
E|-----------------------------------------------------------|

Play Whole Intro Part 2 Twice


Verse:  0:25-0:46

E|-----------------------------------------------------------|
B|-----------------------------------------------------------|
G|-----------------------------------------------------------|
D|----9p7-----10p7-----9p7-----10p7--------------------------|
A|7777---7777----7777-----7777-----77777777------------------|
E|-----------------------------------------------------------|
  ....   ....    ....     ....     ........

Play Twice


E|------------------------------------------------------------|
B|------------------------------------------------------------|
G|------------------------------------------------------------|
D|----7----9----10----12----14~-------------------------------|
A|0000-0000-0000--0000--0000----------------------------------|
E|------------------------------------------------------------|
  .... .... ....  ....  ....

E|------------------------------------------------------------|
B|------------------------------------------------------------|
G|------------------------------------------------------------|
D|----7----9----10----15----14~-------------------------------|
A|0000-0000-0000--0000--0000----------------------------------|
E|------------------------------------------------------------|
  .... .... ....  ....  ....

Play Whole Verse Twice


Chorus:  0:46-1:07

E|------------------------------------------------------------|
B|------------------------------------------------------------|
G|2--------------------7------5-------------------------------|
D|2------3------5------7------5-------------------------------|
A|0------3------5------5------3-------------------------------|
E|-------1------3---------------------------------------------|

E|------------------------------------------------------------|
B|------------------------------------------------------------|
G|2-------------5------10---9---------------------------------|
D|2------3------5------10---9---------------------------------|
A|0------3------3-------8---7---------------------------------|
E|-------1----------------------------------------------------|

Play Whole Chorus Twice


Tab Legend
~  Vibrato
s  Slide
.  Palm Mute
p  Pull Off


Ok so as i explained at the top, i dont know anything else from the song. I dont know
small part after the first chorus before they playy the next verse, so if you know and
it and want me to submit the rest, email me at Thisgodlessendvr@aol.com and ill put it 
here if it sounds correct. Thanks.






Like us on Facebook