Shallow Intro Tab - INTO ETERNITY






** All of the instuments on our albums are tuned down to C. **

* This beginning piece is played in a 7/4 timing. *


Here is the intro piece that I play : (TIM)

---7-----------7-----------8----------7----------7---------------------------|
------------------------------------------------------------10----------8----|
---------9-----------9-----------9----------9---------9----------9---------9-|
-----------------------------------------------------------------------------|
-----------------------------------------------------------------------------|
-----------------------------------------------------------------------------|

It goes by itself a couple of times and then the harmony guitar kicks in : (ROB)

----------3-----------3----------5-----------3---------3---------2-------0--|
---0------------0-----------0----------0---------0----------0----------0----|
----------------------------------------------------------------------------|
----------------------------------------------------------------------------|
----------------------------------------------------------------------------|
----------------------------------------------------------------------------|






Like us on Facebook