Casino - Iris






Intro & refren:

E---------------------------------------------
B--5-7-7~--8-7-5-7-5--------------------------
G--------------------7--5-7-9-7-7-5-5-7-9-7~--
D---------------------------------------------
A---------------------------------------------
E---------------------------------------------

Strofa:

      A5  B5     D5     A5
E---------------------------------------------
B---------------------------------------------
G-------------------7-------------------------
D-----7--9--9-----7------7--------------------
A-----7--9--9---5--------7--------------------
E-----5--7--7------------5--------------------

1.
Ziua asta mie-mi pare ca sigur imi ascunde ceva
Are zambetul de sticla, ce poate se va sparge candva
Te intreb pe tine oare de unde vine atata mister?
Spune-mi tu de ce imi pare ca iarasi pierdem visul de ieri.

Bridge:
B5           D5       B5              E5
Iar te arde indoiala, in ochi tu ai venin
B5                D5          G5                      A5
Dar stii ca numai tu si numai tu, te lauzi cu al meu chin!

Fara tine cerul e prea sus
Fara mine totul e de-ajuns
Fara tine frigul a invins
Fara mine somnu-i necuprins

2.
Ziua asta-nselatoare mai poate sa anunte ceva
Jocul tau ca la ruleta pe mine nu ma poate schimba!

Bridge

Fara tine cerul e prea sus
Fara mine totul e de-ajuns
Fara tine chiar de s-ar putea
Fara mine trece viata ta
Fara tine, fara mine, fara tine
Cerul e prea sus
Fara mine, fara tine, fara mine...

Solo

Fara tine cerul e prea sus
Fara mine totul e de-ajuns
Fara tine frigul a invins
Fara mine somnu-i necuprins
Fara tine chiar de s-ar putea
Fara mine trece viata ta
Fara tine cerul e prea sus
Fara mine totul e de-ajuns


Succes!






Like us on Facebook