De vina esti tu - Iris






~~~=vibrato;
x=palm mute cu ambele maini;

intro(ch.cu overdrive)
e------------------------------------------------------
B------------------------------------------------------
G--------4-------------4------------4------------2-----
D-----4-----4-------4-----4------4-----4------2-----2--
A--2-----------0-0------------------------0-0----------
E-----------------------------3------------------------


intro ch.distorsionata(refren)

e-------------------------------------------------------------------------
B-------------------------------------------------------------------------
G------x-x-x------x-x-x-----x-x-x-------x-x-x-----------------------------
D--4-4-x-x-x------x-x-x-2-2-x-x-x-4-4-4-x-x-x-----x-x-x-----x-x-x---------
A--2-2-x-x-x--5-5-x-x-x-0-0-x-x-x-2-2-2-x-x-x-5-5-x-x-x-2-2-x-x-x-4-4-4---
E-------------3-3-x-x-x-----------------------3-3-x-x-x-0-0-x-x-x-2-2-2---

Armonia pt.versuri:

e---------------
B---------------
G---------------
D--4--2---------
A--2--0--5--4---
E--------3--2---



bucata inainte de solo:

e--------------------------------
B--------------------------------
G--------------------------4~~~--
D--------------2-2---3--5--------
A--2-2---5-5---------------------
E--------------------------------


solo

e------------------------------------------------------
B----------------------5---5-7-8-5~~~-7-8-7-8-7-8-7~~--
G--4-6-7-0---4-7-6---7---7-----------------------------
D------------------------------------------------------
A------------------------------------------------------
E------------------------------------------------------


e----------------------------------------------
B----------------------5---5-7-8-7~~~---11~~~--
G--4-6-7-0---4-7-6---7---7---------------------
D----------------------------------------------
A----------------------------------------------
E----------------------------------------------






Like us on Facebook