Dorinta - Iris






Intro
E|------------------------------|
B|-8-8-8--7-7-7--8---5-5-5-5--7-|
G|-7-7-7--7-7-7--7---4-4-4-4--7-|
D|------------------------------|
A|------------------------------|
E|------------------------------|

Strofa

E|------------------------------------------------------|
B|------------------------------------------------------|
G|-----------------4--(4-4-4-4-4)------------------5--5*|
D|-5--(5-5-5-5-5)--4--(4-4-4-4-4)--2--(2-2-2-2-2)--5----|
A|-5--(5-5-5-5-5)--2--(2-2-2-2-2)--2--(2-2-2-2-2)--3----|
E|-3--(3-3-3-3-3)------------------0--(0-0-0-0-0)-------|


Bridge

E|--------------------------------------------------------------------------|
B|--------------------------------------------------------------------------|
G|-----(7)-7h9-7-------(5)-5h7-5------(7)-7h9-7---(5)-(5)-(5)-(5)-5-5-5-5-5-|
D|---(7)-------------(5)------------(7)-----------(5)-(5)-(5)-(5)-5-5-5-5-5-|
A|-(5)-------------(3)------------(5)-------------(3)-(3)-(3)-(3)-3-3-3-3-3-|
E|--------------------------------------------------------------------------|

Refren

E|------------------------------------------------------|------------------------------------------------------|
B|------------------------------------------------------|------------------------------------------------------|
G|-----------------4--(4-4-4-4-4)------------------5--5*|-----------------4--(4-4-4-4-4)---5-4-5-4-5-4-5-4-5-4-|
D|-5--(5-5-5-5-5)--4--(4-4-4-4-4)--2--(2-2-2-2-2)--5----|-5--(5-5-5-5-5)--4--(4-4-4-4-4)---5-4-5-4-5-4-5-4-5-4-|
A|-5--(5-5-5-5-5)--2--(2-2-2-2-2)--2--(2-2-2-2-2)--3----|-5--(5-5-5-5-5)--2--(2-2-2-2-2)---3-2-3-2-3-2-3-2-3-2-|
E|-3--(3-3-3-3-3)------------------0--(0-0-0-0-0)-------|-3--(3-3-3-3-3)---------------------------------------|

Refren final

E|------------------------------------------------------|------------------------------------------------------|
B|------------------------------------------------------|------------------------------------------------------|
G|-----------------4--(4-4-4-4-4)------------------5--5*|-----------------4--(4-4-4-4-4)---5-4-5-4-5-4-5-4--5--|
D|-5--(5-5-5-5-5)--4--(4-4-4-4-4)--2--(2-2-2-2-2)--5----|-5--(5-5-5-5-5)--4--(4-4-4-4-4)---5-4-5-4-5-4-5-4--5--|
A|-5--(5-5-5-5-5)--2--(2-2-2-2-2)--2--(2-2-2-2-2)--3----|-5--(5-5-5-5-5)--2--(2-2-2-2-2)---3-2-3-2-3-2-3-2--3--|
E|-3--(3-3-3-3-3)------------------0--(0-0-0-0-0)-------|-3--(3-3-3-3-3)---------------------------------------|


* Artificial Harmonic + Vibrato
() Tot ce este intre paranteze() este Palm Mute






Like us on Facebook