Floare de iris - Iris






Titlu : Floare de Iris
Transcriere: Peter Schubert (versurile adaugate de mine - Vailescu Andrei -)
              peters@email.ro
              tabulaturi@k.ro

ACORDURI:
   INTRO:  Am Dm E E
           Am Dm E E
   STROFE: Am Dm E E
           Am Dm E E
   REFREN: F G Dm Am
           C G Am Am

 LEGENDA: Am 002210
          Dm xx0231
          E  022100
          F  133211
          G  320033 sau 355433

INTRO:

Chitara 1:
e---------0-------|------1-----1---|----------------|--------0--------
B-------1---1-----|----3---3-----3-|------0-------0-|------0---0------
G-----2-------2---|--2-------2-----|1---1---2---2---|1---1-------1----
D---2-------------|0---------------|--2-------2-----|--2-----------2--
A-0---------------|----------------|----------------|-----------------
E-----------------|----------------|0---------------|0----------------

e---------0-------|------1---------|----------------|-----------------
B-------1---1-----|----3---3---3---|----------------|0----------------
G-----2-------2---|--2-------2---2-|1-------1--1--2-|-----------------
D---2-------------|0---------------|--------2--2--2-|2----------------
A-0---------------|----------------|----------------|-----------------
E-----------------|----------------|0---------------|0----------------

Chitara 2:
e-------------------|----------------|----------------|----------------
B-0h1-0-------------|------0h1s3-3---|0---------------|----------------
G-------2-1-2-------|----2-----------|1---------------|----------------
D-------------------|--2-------------|--------2-------|----------------
A-0-----------------|----------------|----------------|2---------------
E-------------------|----------------|----------------|------4-0-------

e-----------------|----------------|----------------|-----------------
B---------------0-|1---0-----------|----------------|-----------------
G-------------2---|--2---1-2-------|----------------|-----------------
D-----------2-----|----------2-3-0-|-2--------------|-----------------
A-0---------------|----------------|----------------|-----------------
E-----------------|----------------|-0--------------|-----------------


STROFE:
e---------0-------|------1-----1---|----------------|--------0--------
B-------1---1-----|----3---3-----3-|------0-------0-|------0---0------
G-----2-------2---|--2-------2-----|1---1---2---2---|1---1-------1----
D---2-------------|0---------------|--2-------2-----|--2-----------2--
A-0---------------|----------------|----------------|-----------------
E-----------------|----------------|0---------------|0----------------

e---------0-------|------1-----1---|----------------|--------0--------
B-------1---1-----|----3---3-----3-|------0-------0-|------0---0------
G-----2-------2---|--2-------2-----|1---1---2---2---|1---1-------1----
D---2-------------|0---------------|--2-------2-----|--2-----------2--
A-0---------------|----------------|----------------|-----------------
E-----------------|----------------|0---------------|0----------------

REFREN:
  I............... III............
e---------1-------|------5-3-------|------1-----1---|--------0--------
B-------1---1-----|----3-----3-----|----3---3-----3-|------1---1------
G-----2-------2---|--4---------4---|--2-------2-----|----2------------
D---2-----------2-|--------------5-|0---------------|--2--------------
A-----------------|----------------|----------------|0-----------0-2--
E-1---------------|3---------------|----------------|-----------------

                                                     V..............
e---------0-------|--------3-------|--------0-----0-|5-----5-----5----
B-----1-----1---1-|----3-----3---3-|------1-----1---|--5-----5-----5--
G---0---0-----0---|--0---------0---|----2-----2-----|----5-----5------
D-----------------|----------------|--2-----2-------|-----------------
A-3---------------|----------------|0---------------|-----------------
E-----------------|3---------------|----------------|5----------------

  I..............  III............
e---------1-------|------5-3-------|------1-----1---|--------0--------
B-------1---1-----|----3-----3-----|----3---3-----3-|------1---1------
G-----2-------2---|--4---------4---|--2-------2-----|----2------------
D---2-----------2-|--------------5-|0---------------|--2--------------
A-----------------|----------------|----------------|0-----------0-2--
E-1---------------|3---------------|----------------|-----------------

e---------0-------|--------3-------|---1------------|-----------------
B-----1-----1---1-|----3-----3---3-|--3-------------|-----------------
G---0---0-----0---|--0---------0---|-2--------------|-----------------
D-----------------|----------------|0---------------|-----------------
A-3---------------|----------------|----------------|-----------------
E-----------------|3---------------|----------------|-----------------

I.Floare de Iris, floare de colt
  Ne-ai ocrotit, ne-ai dat un rost

Refren: Iar cand noi nu vom mai fi
        Va veti aminti
        Ca a fost o data Iris
       (refrenul cantat de doua ori)

Solo: (daca il stie cineva va rog trimiteti si la mine la tabulaturi@k.ro ca eu
nu prea am timp, multumesc anticipat)

Refren: o data

II. Pe strazile viselor, am alergat
    Si v-am iubit si v-am cantat

Refren: Iar cand noi nu vom mai fi
        Iar noaptea va fi zi
        Va veti aminti c-a fost o data Iris
        Iar cand noi nu vom mai fi
        Va veti aminti
        Ca a fost o data Iris






Like us on Facebook