Miraje - Iris






intro:
                
e|-----2------2---2------2-----2/32--0|
B|---0---0-0----0------0---0-0----------|
G|--------------------------------------|
D|--------------------------------------|
A|-2-----------------0------------------|
E|--------------------------------------|

e|-------3-----3---3------0------------------|
B|----0---0-0---0------0--------3------------|
G|----------------------------2--------------|
D|-------------------2------0----------------|
A|---------------------------------0--3--2---|
E|-3-----------------------------------------|

-Acelasi lucru face chitara si pe versuri, cu mici variatii

Strofa:
Bm                  A6/9             G
Lasa-mi chinul tau, lasa-mi timpul tau
Em        Dsus2
Ce-n tine ai adunat
Lasa-mi vise-ntregi, spune-mi unde mergi
E vremea de inoptat

Ce-ti inchipuiai, locul tau in rai
Mereu tu l-ai vandut pe arginti

intermezzo:
e|------------------------------------------------------------------|
B|--/12---15--14--------------------------------------------------|
G|------------------------------------------------------------------|
D|---------------------------------------------------------------4--|
A|-------------------2-4-5--2-4-5-4-2--2-4-5-0--2-4-5--2-4-5-4-2----|
E|------------------------------------------------------------------|

Hai alege acum, alt fior sau scrum
In visul tau nebun
Nu te mai trezesti, nu te mai feresti
Te vinzi la un pret de nimic

intermezzo:

Ref:
 B5      G5      A5      E5
  N-a ramas nimic din tine
 B5      G5      A5      B5
  Tu n-ai habar
  Adevaru-i doar o umbra
  Si te minti iar
  Ooo, nimic din tine
  Tu n-ai habar
  Ooo, esti doar o umbra
   Si te minti iar


      Esti doar o umbra,
      N-a ramas nimic din tine..






Like us on Facebook