Nu ma uita - Iris






 Intro:

|--7--7-----5--5-----3--3x-------------------------|-7-7-------5-3----7-|
|--8--8-----7--7-----5--5x-------------------------|-8-8-------7-7----8-|
|--9--9-----7--7-----5--5x-------------------------|-9-9-------7-7----9-|
|--9--9-----7--7-----5--5x-------------------------|-9-9-------7-7----9-|
|--7--7-----5--5-----3--3x----------5h7p5---5--7---|-7-7-------5-5----7-|
|--7--7-----5--5-----3--3x----5--7--------7--------|-7-7-------5-5----7-|

La versuri dupa fiecare vers Valter face cate un artificiu de genu :

 G     D     Em   
Ca sa nu ma uiti
|----------------|
|----------------|
|----------------|
|-----2p0---0----|
|-0-2-----2------|
|----------------|
ai noptile de-argint,

 Am      C      D  
O sa ninga-n parul tau
|------------0----|
|------------1----|
|--2p0---0---2----|
|------2-----2----|
|------------0----|
|------------0----|
iarna sufletului meu.

Ca sa nu ma uiti eu ti-am lasat un vis,
Din amintirea zilelor cand ajungeam pana la nori.

Pasaj:

    Em                      Bm
Daca anii se vor risipi in viata mea,
    C              D        
Lasand in urma doar privirea ta,
|-----3--------|
|-------3------|
|---2-----0----|
|-0------------|
|--------------|
|--------------|      
Oh, Doamne, cat as vrea ca sa te regasesc,
Mereu vei fi a mea!

Refren:
         G                Em
Nu ma uita,     poate ca doare
C                 D
Speranta ce se pierde-n urma ta,
       G             Em
Nu ma uita, poate ca doare,
G                    D            Em   
Te asteapta-n noapte, doar iubirea mea!
G                D            G
Te asteapta-n noapte, doar iubirea mea!


Cand verile ma dor iti las un rau de flori,
Sa-mi aminteasca ochii tai,
Sa mi te-aduca, poate vrei!

Pasaj, Refren X 2

G D Am
G D G

solo :
|-----------------------------------------------------------|
|-----------------------------------------------------------|
|-----------------------------------------------------------|
|--/9-7-5-7-7h9-5-----------------------/9--7-5-7-7h9--7----|
|------------------7-----5h7p5---5--7-----------------------|
|--------------------5-7-------7----------------------------|

|-8--8--8---7-7-7--5-5--3\\5-|-8--8--7-8--10-----15-|
|-10-10-10--8-8-8--7-7--5\\7-|-10-10-9-10-12--12----|
|-9--9--9---9-9-9-----------|-9--9-----------------|
|---------------------------|----------------------|
|---------------------------|----------------------|
|---------------------------|----------------------|

Pasaj, Refren X 2


|--7--7-----5--5-----3--3x-------------------------|-7-7-------5-3----7-7-7-|
|--8--8-----7--7-----5--5x-------------------------|-8-8-------7-7----8-8-8-|
|--9--9-----7--7-----5--5x-------------------------|-9-9-------7-7----9-9-9-|
|--9--9-----7--7-----5--5x-------------------------|-9-9-------7-7----9-9-9-|
|--7--7-----5--5-----3--3x----------5h7p5---5--7---|-7-7-------5-5----7-7-7-|
|--7--7-----5--5-----3--3x----5--7--------7--------|-7-7-------5-5----7-






Like us on Facebook